  0
SECTION
  2
HEADER
  9
$EXTMIN
 10
0.0
 20
0.0
 30
0.0
  9
$EXTMAX
 10
420.0
 20
297.0
 30
0.0
  9
$LIMMIN
 10
0.0
 20
0.0
  9
$LIMMAX
 10
420.0
 20
297.0
  9
$LTSCALE
 40
1.0
  9
$PDMODE
 70
     0
  0
ENDSEC
  0
SECTION
  2
TABLES
  0
TABLE
  2
LTYPE
 70
     3
  0
LTYPE
  2
CONTINUOUS
 70
    64
  3
Solid line
 72
    65
 73
     0
 40
0.0
  0
LTYPE
  2
LTYPE1
 70
    64
  3
HIDDEN
 72
    65
 73
     2
 40
3.0
 49
1.8
 49
-1.2
  0
LTYPE
  2
LTYPE2
 70
    64
  3
PHANTOM
 72
    65
 73
     6
 40
10.0
 49
7.5
 49
-0.5
 49
0.5
 49
-0.5
 49
0.5
 49
-0.5
  0
ENDTAB
  0
TABLE
  2
LAYER
 70
   128
  0
LAYER
  2
0
 70
     0
 62
     7
  6
CONTINUOUS
  0
LAYER
  2
2
 70
     0
 62
     7
  6
CONTINUOUS
  0
LAYER
  2
3
 70
     0
 62
     7
  6
CONTINUOUS
  0
LAYER
  2
4
 70
     0
 62
     7
  6
CONTINUOUS
  0
LAYER
  2
5
 70
     0
 62
     7
  6
CONTINUOUS
  0
LAYER
  2
6
 70
     0
 62
     7
  6
CONTINUOUS
  0
LAYER
  2
7
 70
     0
 62
     7
  6
CONTINUOUS
  0
LAYER
  2
8
 70
     0
 62
     7
  6
CONTINUOUS
  0
LAYER
  2
9
 70
     0
 62
     7
  6
CONTINUOUS
  0
LAYER
  2
10
 70
     0
 62
     7
  6
CONTINUOUS
  0
LAYER
  2
11
 70
     0
 62
     7
  6
CONTINUOUS
  0
LAYER
  2
12
 70
     0
 62
     7
  6
CONTINUOUS
  0
LAYER
  2
13
 70
     0
 62
     7
  6
CONTINUOUS
  0
LAYER
  2
14
 70
     0
 62
     7
  6
CONTINUOUS
  0
LAYER
  2
15
 70
     0
 62
     7
  6
CONTINUOUS
  0
LAYER
  2
16
 70
     0
 62
     7
  6
CONTINUOUS
  0
LAYER
  2
17
 70
     0
 62
     7
  6
CONTINUOUS
  0
LAYER
  2
18
 70
     0
 62
     7
  6
CONTINUOUS
  0
LAYER
  2
19
 70
     0
 62
     7
  6
CONTINUOUS
  0
LAYER
  2
20
 70
     0
 62
     7
  6
CONTINUOUS
  0
LAYER
  2
21
 70
     0
 62
     7
  6
CONTINUOUS
  0
LAYER
  2
22
 70
     0
 62
     7
  6
CONTINUOUS
  0
LAYER
  2
23
 70
     0
 62
     7
  6
CONTINUOUS
  0
LAYER
  2
24
 70
     0
 62
     7
  6
CONTINUOUS
  0
LAYER
  2
25
 70
     0
 62
     7
  6
CONTINUOUS
  0
LAYER
  2
26
 70
     0
 62
     7
  6
CONTINUOUS
  0
LAYER
  2
27
 70
     0
 62
     7
  6
CONTINUOUS
  0
LAYER
  2
28
 70
     0
 62
     7
  6
CONTINUOUS
  0
LAYER
  2
29
 70
     0
 62
     7
  6
CONTINUOUS
  0
LAYER
  2
30
 70
     0
 62
     7
  6
CONTINUOUS
  0
LAYER
  2
31
 70
     0
 62
     7
  6
CONTINUOUS
  0
LAYER
  2
32
 70
     0
 62
     7
  6
CONTINUOUS
  0
LAYER
  2
33
 70
     0
 62
     7
  6
CONTINUOUS
  0
LAYER
  2
34
 70
     0
 62
     7
  6
CONTINUOUS
  0
LAYER
  2
35
 70
     0
 62
     7
  6
CONTINUOUS
  0
LAYER
  2
36
 70
     0
 62
     7
  6
CONTINUOUS
  0
LAYER
  2
37
 70
     0
 62
     7
  6
CONTINUOUS
  0
LAYER
  2
38
 70
     0
 62
     7
  6
CONTINUOUS
  0
LAYER
  2
39
 70
     0
 62
     7
  6
CONTINUOUS
  0
LAYER
  2
40
 70
     0
 62
     7
  6
CONTINUOUS
  0
LAYER
  2
41
 70
     0
 62
     7
  6
CONTINUOUS
  0
LAYER
  2
42
 70
     0
 62
     7
  6
CONTINUOUS
  0
LAYER
  2
43
 70
     0
 62
     7
  6
CONTINUOUS
  0
LAYER
  2
44
 70
     0
 62
     7
  6
CONTINUOUS
  0
LAYER
  2
45
 70
     0
 62
     7
  6
CONTINUOUS
  0
LAYER
  2
46
 70
     0
 62
     7
  6
CONTINUOUS
  0
LAYER
  2
47
 70
     0
 62
     7
  6
CONTINUOUS
  0
LAYER
  2
48
 70
     0
 62
     7
  6
CONTINUOUS
  0
LAYER
  2
49
 70
     0
 62
     7
  6
CONTINUOUS
  0
LAYER
  2
50
 70
     0
 62
     7
  6
CONTINUOUS
  0
LAYER
  2
51
 70
     0
 62
     7
  6
CONTINUOUS
  0
LAYER
  2
52
 70
     0
 62
     7
  6
CONTINUOUS
  0
LAYER
  2
53
 70
     0
 62
     7
  6
CONTINUOUS
  0
LAYER
  2
54
 70
     0
 62
     7
  6
CONTINUOUS
  0
LAYER
  2
55
 70
     0
 62
     7
  6
CONTINUOUS
  0
LAYER
  2
56
 70
     0
 62
     7
  6
CONTINUOUS
  0
LAYER
  2
57
 70
     0
 62
     7
  6
CONTINUOUS
  0
LAYER
  2
58
 70
     0
 62
     7
  6
CONTINUOUS
  0
LAYER
  2
59
 70
     0
 62
     7
  6
CONTINUOUS
  0
LAYER
  2
60
 70
     0
 62
     7
  6
CONTINUOUS
  0
LAYER
  2
61
 70
     0
 62
     7
  6
CONTINUOUS
  0
LAYER
  2
62
 70
     0
 62
     7
  6
CONTINUOUS
  0
LAYER
  2
63
 70
     0
 62
     7
  6
CONTINUOUS
  0
LAYER
  2
64
 70
     0
 62
     7
  6
CONTINUOUS
  0
LAYER
  2
65
 70
     0
 62
     7
  6
CONTINUOUS
  0
LAYER
  2
66
 70
     0
 62
     7
  6
CONTINUOUS
  0
LAYER
  2
67
 70
     0
 62
     7
  6
CONTINUOUS
  0
LAYER
  2
68
 70
     0
 62
     7
  6
CONTINUOUS
  0
LAYER
  2
69
 70
     0
 62
     7
  6
CONTINUOUS
  0
LAYER
  2
70
 70
     0
 62
     7
  6
CONTINUOUS
  0
LAYER
  2
71
 70
     0
 62
     7
  6
CONTINUOUS
  0
LAYER
  2
72
 70
     0
 62
     7
  6
CONTINUOUS
  0
LAYER
  2
73
 70
     0
 62
     7
  6
CONTINUOUS
  0
LAYER
  2
74
 70
     0
 62
     7
  6
CONTINUOUS
  0
LAYER
  2
75
 70
     0
 62
     7
  6
CONTINUOUS
  0
LAYER
  2
76
 70
     0
 62
     7
  6
CONTINUOUS
  0
LAYER
  2
77
 70
     0
 62
     7
  6
CONTINUOUS
  0
LAYER
  2
78
 70
     0
 62
     7
  6
CONTINUOUS
  0
LAYER
  2
79
 70
     0
 62
     7
  6
CONTINUOUS
  0
LAYER
  2
80
 70
     0
 62
     7
  6
CONTINUOUS
  0
LAYER
  2
81
 70
     0
 62
     7
  6
CONTINUOUS
  0
LAYER
  2
82
 70
     0
 62
     7
  6
CONTINUOUS
  0
LAYER
  2
83
 70
     0
 62
     7
  6
CONTINUOUS
  0
LAYER
  2
84
 70
     0
 62
     7
  6
CONTINUOUS
  0
LAYER
  2
85
 70
     0
 62
     7
  6
CONTINUOUS
  0
LAYER
  2
86
 70
     0
 62
     7
  6
CONTINUOUS
  0
LAYER
  2
87
 70
     0
 62
     7
  6
CONTINUOUS
  0
LAYER
  2
88
 70
     0
 62
     7
  6
CONTINUOUS
  0
LAYER
  2
89
 70
     0
 62
     7
  6
CONTINUOUS
  0
LAYER
  2
90
 70
     0
 62
     7
  6
CONTINUOUS
  0
LAYER
  2
91
 70
     0
 62
     7
  6
CONTINUOUS
  0
LAYER
  2
92
 70
     0
 62
     7
  6
CONTINUOUS
  0
LAYER
  2
93
 70
     0
 62
     7
  6
CONTINUOUS
  0
LAYER
  2
94
 70
     0
 62
     7
  6
CONTINUOUS
  0
LAYER
  2
95
 70
     0
 62
     7
  6
CONTINUOUS
  0
LAYER
  2
96
 70
     0
 62
     7
  6
CONTINUOUS
  0
LAYER
  2
97
 70
     0
 62
     7
  6
CONTINUOUS
  0
LAYER
  2
98
 70
     0
 62
     7
  6
CONTINUOUS
  0
LAYER
  2
99
 70
     0
 62
     7
  6
CONTINUOUS
  0
LAYER
  2
100
 70
     0
 62
     7
  6
CONTINUOUS
  0
LAYER
  2
101
 70
     0
 62
     7
  6
CONTINUOUS
  0
LAYER
  2
102
 70
     0
 62
     7
  6
CONTINUOUS
  0
LAYER
  2
103
 70
     0
 62
     7
  6
CONTINUOUS
  0
LAYER
  2
104
 70
     0
 62
     7
  6
CONTINUOUS
  0
LAYER
  2
105
 70
     0
 62
     7
  6
CONTINUOUS
  0
LAYER
  2
106
 70
     0
 62
     7
  6
CONTINUOUS
  0
LAYER
  2
107
 70
     0
 62
     7
  6
CONTINUOUS
  0
LAYER
  2
108
 70
     0
 62
     7
  6
CONTINUOUS
  0
LAYER
  2
109
 70
     0
 62
     7
  6
CONTINUOUS
  0
LAYER
  2
110
 70
     0
 62
     7
  6
CONTINUOUS
  0
LAYER
  2
111
 70
     0
 62
     7
  6
CONTINUOUS
  0
LAYER
  2
112
 70
     0
 62
     7
  6
CONTINUOUS
  0
LAYER
  2
113
 70
     0
 62
     7
  6
CONTINUOUS
  0
LAYER
  2
114
 70
     0
 62
     7
  6
CONTINUOUS
  0
LAYER
  2
115
 70
     0
 62
     7
  6
CONTINUOUS
  0
LAYER
  2
116
 70
     0
 62
     7
  6
CONTINUOUS
  0
LAYER
  2
117
 70
     0
 62
     7
  6
CONTINUOUS
  0
LAYER
  2
118
 70
     0
 62
     7
  6
CONTINUOUS
  0
LAYER
  2
119
 70
     0
 62
     7
  6
CONTINUOUS
  0
LAYER
  2
120
 70
     0
 62
     7
  6
CONTINUOUS
  0
LAYER
  2
121
 70
     0
 62
     7
  6
CONTINUOUS
  0
LAYER
  2
122
 70
     0
 62
     7
  6
CONTINUOUS
  0
LAYER
  2
123
 70
     0
 62
     7
  6
CONTINUOUS
  0
LAYER
  2
124
 70
     0
 62
     7
  6
CONTINUOUS
  0
LAYER
  2
125
 70
     0
 62
     7
  6
CONTINUOUS
  0
LAYER
  2
126
 70
     0
 62
     7
  6
CONTINUOUS
  0
LAYER
  2
127
 70
     0
 62
     7
  6
CONTINUOUS
  0
LAYER
  2
128
 70
     0
 62
     7
  6
CONTINUOUS
  0
ENDTAB
  0
TABLE
  2
STYLE
 70
    13
  0
STYLE
  2
STANDARD
 70
     0
 40
0.0
 41
1.0
 50
0.0
 71
     0
 42
0.2
  3
txt
  4

  0
STYLE
  2
KANJI0
 70
     0
 40
3.0
 41
0.933333333
 50
0.0
 71
     0
 42
3.0
  3

  4
bigfont
  0
STYLE
  2
KANJI1
 70
     0
 40
3.0
 41
0.9
 50
0.0
 71
     0
 42
3.0
  3

  4
bigfont
  0
STYLE
  2
KANJI2
 70
     0
 40
3.2
 41
0.625
 50
0.0
 71
     0
 42
3.2
  3

  4
bigfont
  0
STYLE
  2
KANJI3
 70
     0
 40
3.0
 41
0.933333333
 50
0.0
 71
     0
 42
3.0
  3

  4
bigfont
  0
STYLE
  2
KANJI4
 70
     0
 40
4.2
 41
0.904761905
 50
15.0
 71
     0
 42
4.2
  3

  4
bigfont
  0
STYLE
  2
KANJI5
 70
     0
 40
3.2
 41
0.90625
 50
15.0
 71
     0
 42
3.2
  3

  4
bigfont
  0
STYLE
  2
KANJI6
 70
     0
 40
3.5
 41
1.0
 50
0.0
 71
     0
 42
3.5
  3

  4
bigfont
  0
STYLE
  2
KANJI7
 70
     0
 40
3.5
 41
1.0
 50
10.0
 71
     0
 42
3.5
  3

  4
bigfont
  0
STYLE
  2
KANJI8
 70
     0
 40
3.0
 41
0.666666667
 50
0.0
 71
     0
 42
3.0
  3

  4
bigfont
  0
STYLE
  2
KANJI9
 70
     0
 40
3.0
 41
0.9
 50
0.0
 71
     0
 42
3.0
  3

  4
bigfont
  0
STYLE
  2
KANJI10
 70
     0
 40
4.0
 41
0.75
 50
0.0
 71
     0
 42
4.0
  3

  4
bigfont
  0
STYLE
  2
KANJI11
 70
     4
 40
3.0
 41
1.0
 50
0.0
 71
     0
 42
3.0
  3

  4
bigfont
  0
ENDTAB
  0
TABLE
  2
VIEW
 70
     0
  0
ENDTAB
  0
ENDSEC
  0
SECTION
  2
BLOCKS
  0
ENDSEC
  0
SECTION
  2
ENTITIES
  0
LINE
  8
0
 62
    99
 10
136.5
 20
0.0
 11
136.5
 21
297.0
  0
LINE
  8
0
 62
    99
 10
317.0
 20
0.0
 11
317.0
 21
297.0
  0
LINE
  8
0
 62
    99
 10
0.0
 20
91.3
 11
420.0
 21
91.3
  0
LINE
  8
0
  6
CONTINUOUS
 62
     1
 10
313.7
 20
145.5
 11
311.872348111
 21
144.687787852
  0
LINE
  8
0
  6
CONTINUOUS
 62
     1
 10
313.7
 20
145.5
 11
312.523313109
 21
143.882777702
  0
LINE
  8
0
  6
CONTINUOUS
 62
     1
 10
313.7
 20
145.5
 11
297.5
 21
132.4
  0
LINE
  8
0
  6
CONTINUOUS
 62
     1
 10
297.5
 20
132.4
 11
277.3
 21
132.4
  0
TEXT
  8
0
  6
CONTINUOUS
 62
     1
 10
277.3
 20
133.4
 30
0.1
 40
3.0
  1
出力容量ラベル
 50
0.0
 41
0.933333333
 51
0.0
  7
KANJI0
  0
LINE
  8
0
  6
CONTINUOUS
 62
     1
 10
312.8
 20
162.1
 11
312.8
 21
144.1
  0
ARC
  8
0
  6
CONTINUOUS
 62
     1
 10
313.8
 20
144.1
 40
1.0
 50
180.0
 51
270.0
  0
LINE
  8
0
  6
CONTINUOUS
 62
     1
 10
313.8
 20
143.1
 11
321.8
 21
143.1
  0
ARC
  8
0
  6
CONTINUOUS
 62
     1
 10
321.8
 20
144.1
 40
1.0
 50
270.0
 51
0.0
  0
LINE
  8
0
  6
CONTINUOUS
 62
     1
 10
322.8
 20
144.1
 11
322.8
 21
162.1
  0
ARC
  8
0
  6
CONTINUOUS
 62
     1
 10
321.8
 20
162.1
 40
1.0
 50
0.0
 51
90.0
  0
LINE
  8
0
  6
CONTINUOUS
 62
     1
 10
321.8
 20
163.1
 11
313.8
 21
163.1
  0
ARC
  8
0
  6
CONTINUOUS
 62
     1
 10
313.8
 20
162.1
 40
1.0
 50
90.0
 51
180.0
  0
POLYLINE
  8
0
  6
LTYPE1
 62
     2
 66
     1
  0
VERTEX
  8
0
  6
LTYPE1
 62
     2
 10
347.0
 20
116.0
  0
VERTEX
  8
0
  6
LTYPE1
 62
     2
 10
347.0
 20
77.5
  0
VERTEX
  8
0
  6
LTYPE1
 62
     2
 10
349.5
 20
77.5
  0
VERTEX
  8
0
  6
LTYPE1
 62
     2
 10
349.5
 20
76.5
  0
SEQEND
  0
LINE
  8
0
  6
LTYPE1
 62
     2
 10
349.5
 20
76.5
 11
346.0
 21
76.5
  0
LINE
  8
0
  6
LTYPE1
 62
     2
 10
346.0
 20
76.5
 11
346.0
 21
116.0
  0
LINE
  8
0
  6
CONTINUOUS
 62
     2
 10
345.0
 20
81.0
 11
348.5
 21
81.0
  0
LINE
  8
0
  6
CONTINUOUS
 62
     1
 10
348.5
 20
75.6
 11
349.001200926
 21
73.150755702
  0
LINE
  8
0
  6
CONTINUOUS
 62
     1
 10
348.5
 20
75.6
 11
350.158674883
 21
73.729492681
  0
LINE
  8
0
  6
CONTINUOUS
 62
     1
 10
313.5
 20
112.3
 11
311.988077669
 21
110.99076707
  0
LINE
  8
0
  6
CONTINUOUS
 62
     1
 10
313.5
 20
112.3
 11
312.845253318
 21
110.410209858
  0
LINE
  8
0
  6
CONTINUOUS
 62
     1
 10
296.5
 20
87.2
 11
266.8
 21
87.2
  0
TEXT
  8
0
  6
CONTINUOUS
 62
     1
 10
266.8
 20
88.2
 30
0.3
 40
3.0
  1
制御出力用コンセント
 50
0.0
 41
0.9
 51
0.0
  7
KANJI1
  0
TEXT
  8
0
  6
CONTINUOUS
 62
     1
 10
267.0
 20
82.6
 30
0.0
 40
3.2
  1
電圧出力（ＡＣ１００Ｖ　１２Ａ　ＭＡＸ）
 50
0.0
 41
0.625
 51
0.0
  7
KANJI2
  0
LINE
  8
0
  6
CONTINUOUS
 62
     1
 10
313.5
 20
112.3
 11
296.5
 21
87.2
  0
POINT
  8
0
  6
CONTINUOUS
 62
     2
 10
165.5
 20
91.3
  0
POINT
  8
0
  6
CONTINUOUS
 62
     2
 10
146.5
 20
91.3
  0
LINE
  8
0
  6
CONTINUOUS
 62
     1
 10
110.75
 20
226.2
 11
98.55
 21
242.6
  0
LINE
  8
0
  6
CONTINUOUS
 62
     1
 10
98.55
 20
242.6
 11
76.15
 21
242.6
  0
TEXT
  8
0
  6
CONTINUOUS
 62
     1
 10
76.15
 20
243.1
 30
0.0
 40
3.0
  1
ケース（ＡＢＳ）
 50
0.0
 41
0.933333333
 51
0.0
  7
KANJI3
  0
LINE
  8
0
  6
CONTINUOUS
 62
     1
 10
102.85
 20
119.3
 11
102.764227441
 21
121.79852818
  0
LINE
  8
0
  6
CONTINUOUS
 62
     1
 10
102.85
 20
119.3
 11
101.526454695
 21
121.420902597
  0
LINE
  8
0
  6
CONTINUOUS
 62
     1
 10
102.85
 20
119.3
 11
97.45
 21
137.0
  0
LINE
  8
0
  6
CONTINUOUS
 62
     1
 10
97.45
 20
137.0
 11
69.45
 21
137.0
  0
TEXT
  8
0
  6
CONTINUOUS
 62
     1
 10
69.45
 20
137.5
 30
0.0
 40
3.0
  1
サーキットプロテクタ
 50
0.0
 41
0.933333333
 51
0.0
  7
KANJI3
  0
TEXT
  8
0
  6
CONTINUOUS
 62
     1
 10
69.45
 20
141.15
 30
0.3
 40
3.0
  1
電源スイッチ兼用
 50
0.0
 41
0.9
 51
0.0
  7
KANJI1
  0
LINE
  8
0
  6
CONTINUOUS
 62
     1
 10
182.1
 20
246.3
 11
202.6
 21
246.3
  0
LINE
  8
0
  6
CONTINUOUS
 62
     1
 10
200.6
 20
246.3
 11
199.952952387
 21
243.885185434
  0
LINE
  8
0
  6
CONTINUOUS
 62
     1
 10
200.6
 20
246.3
 11
201.247047613
 21
243.885185434
  0
LINE
  8
0
  6
CONTINUOUS
 62
     1
 10
200.6
 20
246.3
 11
200.6
 21
91.3
  0
LINE
  8
0
  6
CONTINUOUS
 62
     1
 10
200.6
 20
91.3
 11
201.247047613
 21
93.714814566
  0
LINE
  8
0
  6
CONTINUOUS
 62
     1
 10
200.6
 20
91.3
 11
199.952952387
 21
93.714814566
  0
LINE
  8
0
  6
CONTINUOUS
 62
     1
 10
182.1
 20
91.3
 11
202.6
 21
91.3
  0
TEXT
  8
0
  6
CONTINUOUS
 62
     1
 10
200.1
 20
163.1
 30
0.0
 40
4.2
  1
１５５
 50
90.0
 41
0.904761905
 51
15.0
  7
KANJI4
  0
POINT
  8
0
  6
CONTINUOUS
 62
     2
 10
134.349953127
 20
91.291880662
  0
POINT
  8
0
  6
CONTINUOUS
 62
     2
 10
132.849953127
 20
91.291880662
  0
POINT
  8
0
  6
CONTINUOUS
 62
     2
 10
123.349953127
 20
91.291880662
  0
POLYLINE
  8
0
  6
CONTINUOUS
 62
     1
 66
     1
  0
VERTEX
  8
0
  6
CONTINUOUS
 62
     1
 10
381.235
 20
81.0
  0
VERTEX
  8
0
  6
CONTINUOUS
 62
     1
 10
381.235
 20
221.0
  0
VERTEX
  8
0
  6
CONTINUOUS
 62
     1
 10
380.587952387
 20
218.585185434
  0
SEQEND
  0
LINE
  8
0
  6
CONTINUOUS
 62
     1
 10
381.235
 20
221.0
 11
381.882047613
 21
218.585185434
  0
TEXT
  8
0
  6
CONTINUOUS
 62
     1
 10
380.235
 20
146.65
 30
0.0
 40
3.2
  1
１４０（参考寸法）
 50
90.0
 41
0.90625
 51
15.0
  7
KANJI5
  0
LINE
  8
0
  6
CONTINUOUS
 62
     1
 10
349.0
 20
221.0
 11
384.135
 21
221.0
  0
LINE
  8
0
  6
CONTINUOUS
 62
     1
 10
349.5
 20
81.0
 11
384.135
 21
81.0
  0
LINE
  8
0
  6
CONTINUOUS
 62
     1
 10
348.5
 20
75.6
 11
355.5
 21
61.6
  0
LINE
  8
0
  6
CONTINUOUS
 62
     1
 10
355.5
 20
61.6
 11
385.8
 21
61.6
  0
TEXT
  8
0
  6
CONTINUOUS
 62
     1
 10
356.7
 20
62.6
 30
0.3
 40
3.0
  1
壁掛け用取付アングル
 50
0.0
 41
0.9
 51
0.0
  7
KANJI1
  0
LINE
  8
0
  6
CONTINUOUS
 62
     1
 10
381.235
 20
81.0
 11
381.882047613
 21
83.414814566
  0
LINE
  8
0
  6
CONTINUOUS
 62
     1
 10
381.235
 20
81.0
 11
380.587952387
 21
83.414814566
  0
LINE
  8
0
  6
CONTINUOUS
 62
     1
 10
106.35
 20
242.3
 11
106.35
 21
260.6
  0
LINE
  8
0
  6
CONTINUOUS
 62
     1
 10
106.35
 20
258.6
 11
108.764814566
 21
257.952952387
  0
LINE
  8
0
  6
CONTINUOUS
 62
     1
 10
106.35
 20
258.6
 11
108.764814566
 21
259.247047613
  0
LINE
  8
0
  6
CONTINUOUS
 62
     1
 10
106.35
 20
258.6
 11
186.35
 21
258.6
  0
LINE
  8
0
  6
CONTINUOUS
 62
     1
 10
186.35
 20
258.6
 11
183.935185434
 21
259.247047613
  0
LINE
  8
0
  6
CONTINUOUS
 62
     1
 10
186.35
 20
258.6
 11
183.935185434
 21
257.952952387
  0
LINE
  8
0
  6
CONTINUOUS
 62
     1
 10
186.35
 20
242.3
 11
186.35
 21
260.6
  0
TEXT
  8
0
  6
CONTINUOUS
 62
     1
 10
142.55
 20
259.1
 30
0.0
 40
4.2
  1
８０
 50
0.0
 41
0.904761905
 51
15.0
  7
KANJI4
  0
LINE
  8
0
  6
CONTINUOUS
 62
     1
 10
304.5
 20
242.0
 11
304.5
 21
260.6
  0
LINE
  8
0
  6
CONTINUOUS
 62
     1
 10
304.5
 20
258.6
 11
306.914814566
 21
257.952952387
  0
LINE
  8
0
  6
CONTINUOUS
 62
     1
 10
304.5
 20
258.6
 11
306.914814566
 21
259.247047613
  0
LINE
  8
0
  6
CONTINUOUS
 62
     1
 10
304.5
 20
258.6
 11
349.5
 21
258.6
  0
LINE
  8
0
  6
CONTINUOUS
 62
     1
 10
349.5
 20
258.6
 11
347.085185434
 21
259.247047613
  0
LINE
  8
0
  6
CONTINUOUS
 62
     1
 10
349.5
 20
258.6
 11
347.085185434
 21
257.952952387
  0
LINE
  8
0
  6
CONTINUOUS
 62
     1
 10
349.5
 20
242.0
 11
349.5
 21
260.6
  0
TEXT
  8
0
  6
CONTINUOUS
 62
     1
 10
323.2
 20
259.1
 30
0.0
 40
4.2
  1
４５
 50
0.0
 41
0.904761905
 51
15.0
  7
KANJI4
  0
LINE
  8
0
  6
CONTINUOUS
 62
     1
 10
110.75
 20
226.2
 11
109.827836963
 21
228.523707239
  0
LINE
  8
0
  6
CONTINUOUS
 62
     1
 10
110.75
 20
226.2
 11
108.789529764
 21
227.751307981
  0
LINE
  8
0
  6
CONTINUOUS
 62
     1
 10
116.7
 20
197.1
 11
115.714824289
 21
199.397700768
  0
LINE
  8
0
  6
CONTINUOUS
 62
     1
 10
116.7
 20
197.1
 11
114.697962423
 21
198.597279379
  0
LINE
  8
0
  6
CONTINUOUS
 62
     1
 10
116.7
 20
197.1
 11
97.1
 21
222.0
  0
LINE
  8
0
  6
CONTINUOUS
 62
     1
 10
97.1
 20
222.0
 11
80.3
 21
222.0
  0
TEXT
  8
0
  6
CONTINUOUS
 62
     1
 10
80.3
 20
222.5
 30
0.0
 40
3.0
  1
パネルシート
 50
0.0
 41
0.933333333
 51
0.0
  7
KANJI3
  0
LINE
  8
0
  6
CONTINUOUS
 62
     2
 10
187.85
 20
133.1
 11
187.85
 21
106.1
  0
LINE
  8
0
  6
CONTINUOUS
 62
     2
 10
186.35
 20
106.1
 11
187.85
 21
106.1
  0
LINE
  8
0
  6
CONTINUOUS
 62
     2
 10
187.85
 20
133.1
 11
186.35
 21
133.1
  0
LINE
  8
0
  6
CONTINUOUS
 62
     2
 10
189.85
 20
132.6
 11
187.85
 21
133.1
  0
LINE
  8
0
  6
CONTINUOUS
 62
     2
 10
187.85
 20
106.1
 11
189.85
 21
106.6
  0
LINE
  8
0
  6
CONTINUOUS
 62
     2
 10
189.85
 20
106.6
 11
189.85
 21
132.6
  0
LINE
  8
0
  6
CONTINUOUS
 62
     2
 10
106.35
 20
109.945
 11
104.35
 21
109.945
  0
LINE
  8
0
  6
CONTINUOUS
 62
     2
 10
106.35
 20
129.255
 11
104.35
 21
129.255
  0
LINE
  8
0
  6
CONTINUOUS
 62
     2
 10
104.35
 20
129.255
 11
104.35
 21
109.945
  0
LINE
  8
0
  6
CONTINUOUS
 62
     2
 10
101.52
 20
123.75
 11
104.35
 21
123.75
  0
LINE
  8
0
  6
CONTINUOUS
 62
     2
 10
101.52
 20
115.45
 11
104.35
 21
115.45
  0
LINE
  8
0
  6
CONTINUOUS
 62
     2
 10
101.52
 20
123.75
 11
101.52
 21
115.45
  0
ARC
  8
0
  6
CONTINUOUS
 62
     3
 10
113.35
 20
98.3
 40
7.0
 50
180.0
 51
270.0
  0
LINE
  8
0
  6
CONTINUOUS
 62
     3
 10
113.35
 20
91.3
 11
179.35
 21
91.3
  0
ARC
  8
0
  6
CONTINUOUS
 62
     3
 10
179.35
 20
98.3
 40
7.0
 50
270.0
 51
0.0
  0
LINE
  8
0
  6
CONTINUOUS
 62
     3
 10
106.35
 20
239.3
 11
106.35
 21
98.3
  0
ARC
  8
0
  6
CONTINUOUS
 62
     3
 10
113.35
 20
239.3
 40
7.0
 50
90.0
 51
180.0
  0
LINE
  8
0
  6
CONTINUOUS
 62
     3
 10
186.35
 20
98.3
 11
186.35
 21
239.3
  0
LINE
  8
0
  6
CONTINUOUS
 62
     3
 10
113.35
 20
246.3
 11
179.35
 21
246.3
  0
ARC
  8
0
  6
CONTINUOUS
 62
     3
 10
179.35
 20
239.3
 40
7.0
 50
0.0
 51
90.0
  0
ARC
  8
0
  6
LTYPE1
 62
     1
 10
113.35
 20
98.3
 40
5.0
 50
179.999969099
 51
270.0
  0
LINE
  8
0
  6
LTYPE1
 62
     1
 10
108.35
 20
98.300002697
 11
108.35
 21
239.300005395
  0
ARC
  8
0
  6
LTYPE1
 62
     1
 10
113.35
 20
239.3
 40
5.0
 50
89.999924286
 51
179.999938179
  0
LINE
  8
0
  6
LTYPE1
 62
     1
 10
113.350006607
 20
244.3
 11
179.350003815
 21
244.3
  0
ARC
  8
0
  6
LTYPE1
 62
     1
 10
179.35
 20
239.3
 40
5.0
 50
0.0
 51
89.999956287
  0
LINE
  8
0
  6
LTYPE1
 62
     1
 10
184.35
 20
239.3
 11
184.35
 21
98.300002697
  0
ARC
  8
0
  6
LTYPE1
 62
     1
 10
179.35
 20
98.3
 40
5.0
 50
270.000043713
 51
0.000030901
  0
LINE
  8
0
  6
LTYPE1
 62
     1
 10
179.350003815
 20
93.3
 11
113.35
 21
93.3
  0
ARC
  8
0
  6
LTYPE2
 62
     1
 10
117.35
 20
102.3
 40
3.0
 50
180.0
 51
270.0
  0
LINE
  8
0
  6
LTYPE2
 62
     1
 10
175.35
 20
99.3
 11
117.35
 21
99.3
  0
ARC
  8
0
  6
LTYPE2
 62
     1
 10
175.35
 20
102.3
 40
3.0
 50
270.0
 51
0.0
  0
ARC
  8
0
  6
LTYPE2
 62
     1
 10
117.35
 20
235.3
 40
3.0
 50
90.0
 51
180.0
  0
LINE
  8
0
  6
LTYPE2
 62
     1
 10
117.35
 20
238.3
 11
175.35
 21
238.3
  0
ARC
  8
0
  6
LTYPE2
 62
     1
 10
175.35
 20
235.3
 40
3.0
 50
0.0
 51
90.0
  0
LINE
  8
0
  6
CONTINUOUS
 62
     1
 10
178.35
 20
145.3
 11
114.35
 21
145.3
  0
LINE
  8
0
  6
CONTINUOUS
 62
     1
 10
178.35
 20
145.3
 11
178.35
 21
228.3
  0
LINE
  8
0
  6
CONTINUOUS
 62
     1
 10
178.35
 20
228.3
 11
114.35
 21
228.3
  0
LINE
  8
0
  6
CONTINUOUS
 62
     1
 10
114.35
 20
145.3
 11
114.35
 21
228.3
  0
LINE
  8
0
  6
CONTINUOUS
 62
     1
 10
114.35
 20
225.3
 11
178.35
 21
225.3
  0
LINE
  8
0
  6
CONTINUOUS
 62
     1
 10
178.35
 20
148.3
 11
114.35
 21
148.3
  0
LINE
  8
0
  6
LTYPE2
 62
     1
 10
114.35
 20
102.3
 11
114.35
 21
145.3
  0
LINE
  8
0
  6
LTYPE2
 62
     1
 10
178.35
 20
145.3
 11
178.35
 21
102.3
  0
LINE
  8
0
  6
LTYPE2
 62
     1
 10
114.35
 20
228.3
 11
114.35
 21
235.3
  0
LINE
  8
0
  6
LTYPE2
 62
     1
 10
178.35
 20
235.3
 11
178.35
 21
228.3
  0
ARC
  8
0
  6
CONTINUOUS
 62
     2
 10
117.35
 20
222.3
 40
1.5
 50
90.0
 51
180.0
  0
LINE
  8
0
  6
CONTINUOUS
 62
     2
 10
175.35
 20
223.8
 11
117.35
 21
223.8
  0
ARC
  8
0
  6
CONTINUOUS
 62
     2
 10
175.35
 20
222.3
 40
1.5
 50
0.0
 51
90.0
  0
LINE
  8
0
  6
CONTINUOUS
 62
     2
 10
176.85
 20
151.3
 11
176.85
 21
222.3
  0
ARC
  8
0
  6
CONTINUOUS
 62
     2
 10
175.35
 20
151.3
 40
1.5
 50
270.0
 51
0.0
  0
LINE
  8
0
  6
CONTINUOUS
 62
     2
 10
115.85
 20
222.3
 11
115.85
 21
151.3
  0
LINE
  8
0
  6
CONTINUOUS
 62
     2
 10
117.35
 20
149.8
 11
175.35
 21
149.8
  0
ARC
  8
0
  6
CONTINUOUS
 62
     2
 10
117.35
 20
151.3
 40
1.5
 50
180.0
 51
270.0
  0
CIRCLE
  8
0
  6
CONTINUOUS
 62
     1
 10
138.85
 20
166.3
 40
6.0
  0
CIRCLE
  8
0
  6
CONTINUOUS
 62
     1
 10
153.85
 20
166.3
 40
6.0
  0
CIRCLE
  8
0
  6
CONTINUOUS
 62
     1
 10
168.85
 20
166.3
 40
6.0
  0
LINE
  8
0
  6
CONTINUOUS
 62
     2
 10
165.85
 20
164.3
 11
171.85
 21
164.3
  0
LINE
  8
0
  6
CONTINUOUS
 62
     2
 10
171.85
 20
164.3
 11
168.85
 21
169.3
  0
LINE
  8
0
  6
CONTINUOUS
 62
     2
 10
168.85
 20
169.3
 11
165.85
 21
164.3
  0
LINE
  8
0
  6
CONTINUOUS
 62
     2
 10
156.85
 20
168.3
 11
150.85
 21
168.3
  0
LINE
  8
0
  6
CONTINUOUS
 62
     2
 10
150.85
 20
168.3
 11
153.85
 21
163.3
  0
LINE
  8
0
  6
CONTINUOUS
 62
     2
 10
153.85
 20
163.3
 11
156.85
 21
168.3
  0
LINE
  8
0
  6
CONTINUOUS
 62
     2
 10
140.85
 20
163.3
 11
140.85
 21
169.3
  0
ARC
  8
0
  6
CONTINUOUS
 62
     2
 10
119.85
 20
161.3
 40
3.0
 50
180.0
 51
270.0
  0
LINE
  8
0
  6
CONTINUOUS
 62
     2
 10
119.85
 20
158.3
 11
172.85
 21
158.3
  0
ARC
  8
0
  6
CONTINUOUS
 62
     2
 10
172.85
 20
161.3
 40
3.0
 50
270.0
 51
0.0
  0
LINE
  8
0
  6
CONTINUOUS
 62
     2
 10
175.85
 20
161.3
 11
175.85
 21
171.3
  0
ARC
  8
0
  6
CONTINUOUS
 62
     2
 10
172.85
 20
171.3
 40
3.0
 50
0.0
 51
90.0
  0
LINE
  8
0
  6
CONTINUOUS
 62
     2
 10
172.85
 20
174.3
 11
119.85
 21
174.3
  0
ARC
  8
0
  6
CONTINUOUS
 62
     2
 10
119.85
 20
171.3
 40
3.0
 50
90.0
 51
180.0
  0
LINE
  8
0
  6
CONTINUOUS
 62
     2
 10
116.85
 20
171.3
 11
116.85
 21
161.3
  0
CIRCLE
  8
0
  6
CONTINUOUS
 62
     1
 10
146.85
 20
218.8
 40
1.5
  0
ARC
  8
0
  6
CONTINUOUS
 62
     2
 10
153.85
 20
218.8
 40
2.5
 50
270.0
 51
90.0
  0
LINE
  8
0
  6
CONTINUOUS
 62
     2
 10
153.85
 20
221.3
 11
146.85
 21
221.3
  0
ARC
  8
0
  6
CONTINUOUS
 62
     2
 10
146.85
 20
218.8
 40
2.5
 50
90.0
 51
270.0
  0
LINE
  8
0
  6
CONTINUOUS
 62
     2
 10
146.85
 20
216.3
 11
153.85
 21
216.3
  0
LINE
  8
0
  6
CONTINUOUS
 62
     1
 10
165.294
 20
155.058
 11
165.348
 21
155.112
  0
LINE
  8
0
  6
CONTINUOUS
 62
     1
 10
159.138
 20
155.76
 11
161.46
 21
155.76
  0
ARC
  8
0
  6
CONTINUOUS
 62
     1
 10
161.46
 20
155.112
 40
0.648
 50
0.0
 51
90.0
  0
LINE
  8
0
  6
CONTINUOUS
 62
     1
 10
162.054
 20
155.112
 11
160.974
 21
155.112
  0
LINE
  8
0
  6
CONTINUOUS
 62
     1
 10
160.974
 20
155.112
 11
160.974
 21
152.466
  0
LINE
  8
0
  6
CONTINUOUS
 62
     1
 10
160.974
 20
152.466
 11
160.326
 21
152.466
  0
LINE
  8
0
  6
CONTINUOUS
 62
     1
 10
160.326
 20
152.466
 11
160.326
 21
155.112
  0
LINE
  8
0
  6
CONTINUOUS
 62
     1
 10
160.326
 20
155.112
 11
159.138
 21
155.112
  0
LINE
  8
0
  6
CONTINUOUS
 62
     1
 10
159.138
 20
155.112
 11
159.138
 21
155.76
  0
ARC
  8
0
  6
CONTINUOUS
 62
     1
 10
164.7
 20
155.058
 40
0.648
 50
0.0
 51
90.0
  0
LINE
  8
0
  6
CONTINUOUS
 62
     1
 10
165.348
 20
155.058
 11
163.728
 21
155.058
  0
ARC
  8
0
  6
CONTINUOUS
 62
     1
 10
163.728
 20
154.086
 40
0.972
 50
93.2
 51
227.3
  0
ARC
  8
0
  6
CONTINUOUS
 62
     1
 10
163.728
 20
154.086
 40
0.972
 50
227.3
 51
35.537677792
  0
LINE
  8
0
  6
CONTINUOUS
 62
     1
 10
164.484
 20
154.626
 11
165.24
 21
154.626
  0
LINE
  8
0
  6
CONTINUOUS
 62
     1
 10
165.942
 20
152.466
 11
165.942
 21
155.706
  0
LINE
  8
0
  6
CONTINUOUS
 62
     1
 10
165.942
 20
155.706
 11
166.59
 21
155.706
  0
LINE
  8
0
  6
CONTINUOUS
 62
     1
 10
166.59
 20
155.706
 11
166.59
 21
154.41
  0
LINE
  8
0
  6
CONTINUOUS
 62
     1
 10
166.59
 20
154.41
 11
168.534
 21
154.41
  0
LINE
  8
0
  6
CONTINUOUS
 62
     1
 10
168.534
 20
154.41
 11
168.534
 21
155.706
  0
ARC
  8
0
  6
CONTINUOUS
 62
     1
 10
168.534
 20
155.058
 40
0.648
 50
0.0
 51
90.0
  0
LINE
  8
0
  6
CONTINUOUS
 62
     1
 10
169.182
 20
155.058
 11
169.182
 21
152.466
  0
LINE
  8
0
  6
CONTINUOUS
 62
     1
 10
169.182
 20
152.466
 11
168.534
 21
152.466
  0
LINE
  8
0
  6
CONTINUOUS
 62
     1
 10
168.534
 20
152.466
 11
168.534
 21
153.762
  0
LINE
  8
0
  6
CONTINUOUS
 62
     1
 10
168.534
 20
153.762
 11
166.59
 21
153.762
  0
LINE
  8
0
  6
CONTINUOUS
 62
     1
 10
166.59
 20
153.762
 11
166.59
 21
152.466
  0
LINE
  8
0
  6
CONTINUOUS
 62
     1
 10
166.59
 20
152.466
 11
165.942
 21
152.466
  0
ARC
  8
0
  6
CONTINUOUS
 62
     1
 10
172.476
 20
155.058
 40
0.648
 50
0.0
 51
90.0
  0
LINE
  8
0
  6
CONTINUOUS
 62
     1
 10
173.07
 20
155.058
 11
171.504
 21
155.058
  0
ARC
  8
0
  6
CONTINUOUS
 62
     1
 10
171.504
 20
154.086
 40
0.972
 50
93.2
 51
227.3
  0
ARC
  8
0
  6
CONTINUOUS
 62
     1
 10
171.504
 20
154.086
 40
0.972
 50
227.3
 51
35.537677792
  0
LINE
  8
0
  6
CONTINUOUS
 62
     1
 10
172.26
 20
154.626
 11
173.016
 21
154.626
  0
LINE
  8
0
  6
CONTINUOUS
 62
     3
 10
160.65
 20
152.574
 11
160.65
 21
155.382
  0
LINE
  8
0
  6
CONTINUOUS
 62
     1
 10
164.7
 20
155.706
 11
163.674
 21
155.706
  0
ARC
  8
0
  6
CONTINUOUS
 62
     1
 10
163.728
 20
154.086
 40
1.62
 50
91.9
 51
205.7
  0
ARC
  8
0
  6
CONTINUOUS
 62
     1
 10
163.728
 20
154.086
 40
1.62
 50
205.7
 51
19.653824058
  0
ARC
  8
0
  6
CONTINUOUS
 62
     3
 10
163.728
 20
154.086
 40
1.35
 50
90.0
 51
205.7
  0
ARC
  8
0
  6
CONTINUOUS
 62
     3
 10
163.728
 20
154.086
 40
1.35
 50
205.7
 51
19.653824058
  0
LINE
  8
0
  6
CONTINUOUS
 62
     1
 10
172.476
 20
155.706
 11
171.45
 21
155.706
  0
ARC
  8
0
  6
CONTINUOUS
 62
     1
 10
171.504
 20
154.086
 40
1.62
 50
91.9
 51
205.7
  0
ARC
  8
0
  6
CONTINUOUS
 62
     1
 10
171.504
 20
154.086
 40
1.62
 50
205.7
 51
19.653824058
  0
ARC
  8
0
  6
CONTINUOUS
 62
     3
 10
171.504
 20
154.086
 40
1.35
 50
90.0
 51
205.7
  0
ARC
  8
0
  6
CONTINUOUS
 62
     3
 10
171.504
 20
154.086
 40
1.35
 50
205.7
 51
19.653824058
  0
LINE
  8
0
  6
CONTINUOUS
 62
     3
 10
166.266
 20
155.598
 11
166.266
 21
152.574
  0
LINE
  8
0
  6
CONTINUOUS
 62
     3
 10
166.32
 20
154.086
 11
168.804
 21
154.086
  0
LINE
  8
0
  6
CONTINUOUS
 62
     3
 10
168.804
 20
155.328
 11
168.804
 21
152.574
  0
LINE
  8
0
  6
CONTINUOUS
 62
     3
 10
164.97
 20
155.436
 11
163.728004247
 21
155.436
  0
LINE
  8
0
  6
CONTINUOUS
 62
     3
 10
172.692
 20
155.436
 11
171.504003455
 21
155.436
  0
LINE
  8
0
  6
CONTINUOUS
 62
     3
 10
159.246
 20
155.436
 11
161.784
 21
155.436
  0
LINE
  8
0
  6
CONTINUOUS
 62
     2
 10
140.85
 20
169.3
 11
140.1
 21
168.85
  0
LINE
  8
0
  6
CONTINUOUS
 62
     2
 10
140.1
 20
163.75
 11
140.85
 21
163.3
  0
LINE
  8
0
  6
CONTINUOUS
 62
     2
 10
140.1
 20
168.85
 11
140.1
 21
163.75
  0
LINE
  8
0
  6
CONTINUOUS
 62
     2
 10
140.1
 20
163.75
 11
140.1
 21
168.85
  0
LINE
  8
0
  6
CONTINUOUS
 62
     3
 10
316.2
 20
229.8
 11
316.2
 21
228.3
  0
LINE
  8
0
  6
CONTINUOUS
 62
     3
 10
316.2
 20
224.8
 11
316.2
 21
223.3
  0
LINE
  8
0
  6
CONTINUOUS
 62
     3
 10
316.2
 20
219.8
 11
316.2
 21
218.3
  0
LINE
  8
0
  6
CONTINUOUS
 62
     3
 10
316.2
 20
214.8
 11
316.2
 21
213.3
  0
LINE
  8
0
  6
CONTINUOUS
 62
     3
 10
316.2
 20
209.8
 11
316.2
 21
208.3
  0
LINE
  8
0
  6
CONTINUOUS
 62
     3
 10
316.2
 20
204.8
 11
316.2
 21
203.3
  0
LINE
  8
0
  6
CONTINUOUS
 62
     3
 10
316.2
 20
199.8
 11
316.2
 21
198.3
  0
LINE
  8
0
  6
CONTINUOUS
 62
     3
 10
316.2
 20
228.3
 11
334.2
 21
228.3
  0
LINE
  8
0
  6
CONTINUOUS
 62
     3
 10
334.2
 20
229.8
 11
316.2
 21
229.8
  0
LINE
  8
0
  6
CONTINUOUS
 62
     3
 10
316.2
 20
223.3
 11
334.2
 21
223.3
  0
LINE
  8
0
  6
CONTINUOUS
 62
     3
 10
334.2
 20
224.8
 11
316.2
 21
224.8
  0
LINE
  8
0
  6
CONTINUOUS
 62
     3
 10
316.2
 20
218.3
 11
334.2
 21
218.3
  0
LINE
  8
0
  6
CONTINUOUS
 62
     3
 10
334.2
 20
219.8
 11
316.2
 21
219.8
  0
LINE
  8
0
  6
CONTINUOUS
 62
     3
 10
316.2
 20
213.3
 11
334.2
 21
213.3
  0
LINE
  8
0
  6
CONTINUOUS
 62
     3
 10
334.2
 20
214.8
 11
316.2
 21
214.8
  0
LINE
  8
0
  6
CONTINUOUS
 62
     3
 10
316.2
 20
208.3
 11
334.2
 21
208.3
  0
LINE
  8
0
  6
CONTINUOUS
 62
     3
 10
334.2
 20
209.8
 11
316.2
 21
209.8
  0
LINE
  8
0
  6
CONTINUOUS
 62
     3
 10
316.2
 20
203.3
 11
334.2
 21
203.3
  0
LINE
  8
0
  6
CONTINUOUS
 62
     3
 10
334.2
 20
204.8
 11
316.2
 21
204.8
  0
LINE
  8
0
  6
CONTINUOUS
 62
     3
 10
316.2
 20
198.3
 11
334.2
 21
198.3
  0
LINE
  8
0
  6
CONTINUOUS
 62
     3
 10
334.2
 20
199.8
 11
316.2
 21
199.8
  0
LINE
  8
0
  6
CONTINUOUS
 62
     3
 10
334.2
 20
229.8
 11
334.2
 21
228.3
  0
LINE
  8
0
  6
CONTINUOUS
 62
     3
 10
334.2
 20
224.8
 11
334.2
 21
223.3
  0
LINE
  8
0
  6
CONTINUOUS
 62
     3
 10
334.2
 20
219.8
 11
334.2
 21
218.3
  0
LINE
  8
0
  6
CONTINUOUS
 62
     3
 10
334.2
 20
214.8
 11
334.2
 21
213.3
  0
LINE
  8
0
  6
CONTINUOUS
 62
     3
 10
334.2
 20
209.8
 11
334.2
 21
208.3
  0
LINE
  8
0
  6
CONTINUOUS
 62
     3
 10
334.2
 20
204.8
 11
334.2
 21
203.3
  0
LINE
  8
0
  6
CONTINUOUS
 62
     3
 10
334.2
 20
199.8
 11
334.2
 21
198.3
  0
ARC
  8
0
  6
CONTINUOUS
 62
     3
 10
347.5
 20
93.3
 40
2.0
 50
270.0
 51
0.0
  0
LINE
  8
0
  6
CONTINUOUS
 62
     3
 10
349.5
 20
93.3
 11
349.5
 21
244.3
  0
ARC
  8
0
  6
CONTINUOUS
 62
     3
 10
347.5
 20
244.3
 40
2.0
 50
0.0
 51
90.0
  0
ARC
  8
0
  6
CONTINUOUS
 62
     1
 10
316.275
 20
128.6
 40
0.5
 50
90.0
 51
180.0
  0
LINE
  8
0
  6
CONTINUOUS
 62
     1
 10
315.775
 20
128.6
 11
315.775
 21
121.6
  0
ARC
  8
0
  6
CONTINUOUS
 62
     1
 10
316.275
 20
121.6
 40
0.5
 50
180.000000001
 51
270.0
  0
LINE
  8
0
  6
CONTINUOUS
 62
     1
 10
315.775
 20
110.6
 11
315.775
 21
117.6
  0
ARC
  8
0
  6
CONTINUOUS
 62
     1
 10
316.275
 20
117.6
 40
0.5
 50
90.0
 51
179.999999999
  0
ARC
  8
0
  6
CONTINUOUS
 62
     1
 10
312.75
 20
131.85
 40
0.5
 50
90.0
 51
180.0
  0
ARC
  8
0
  6
CONTINUOUS
 62
     1
 10
312.75
 20
107.35
 40
0.5
 50
180.0
 51
270.0
  0
LINE
  8
0
  6
CONTINUOUS
 62
     1
 10
312.25
 20
131.85
 11
312.25
 21
107.35
  0
ARC
  8
0
  6
CONTINUOUS
 62
     1
 10
340.25
 20
107.35
 40
0.5
 50
270.0
 51
0.0
  0
LINE
  8
0
  6
CONTINUOUS
 62
     1
 10
340.75
 20
107.35
 11
340.75
 21
131.85
  0
ARC
  8
0
  6
CONTINUOUS
 62
     1
 10
340.25
 20
131.85
 40
0.5
 50
0.0
 51
90.0
  0
ARC
  8
0
  6
CONTINUOUS
 62
     1
 10
338.0
 20
110.6
 40
0.5
 50
270.0
 51
0.0
  0
LINE
  8
0
  6
CONTINUOUS
 62
     1
 10
338.5
 20
110.6
 11
338.5
 21
128.6
  0
ARC
  8
0
  6
CONTINUOUS
 62
     1
 10
338.0
 20
128.6
 40
0.5
 50
0.0
 51
90.0
  0
LINE
  8
0
  6
CONTINUOUS
 62
     1
 10
340.25
 20
132.35
 11
312.75
 21
132.35
  0
LINE
  8
0
  6
CONTINUOUS
 62
     1
 10
312.75
 20
106.85
 11
340.25
 21
106.85
  0
ARC
  8
0
  6
CONTINUOUS
 62
     1
 10
327.075
 20
110.6
 40
0.5
 50
270.0
 51
0.0
  0
LINE
  8
0
  6
CONTINUOUS
 62
     1
 10
327.075
 20
110.1
 11
316.275
 21
110.1
  0
LINE
  8
0
  6
CONTINUOUS
 62
     1
 10
330.575
 20
128.6
 11
330.575
 21
110.6
  0
ARC
  8
0
  6
CONTINUOUS
 62
     1
 10
331.075
 20
110.6
 40
0.5
 50
180.0
 51
270.0
  0
ARC
  8
0
  6
CONTINUOUS
 62
     1
 10
331.075
 20
128.6
 40
0.5
 50
90.0
 51
180.0
  0
POINT
  8
0
  6
CONTINUOUS
 62
     1
 10
334.575
 20
117.0
  0
LINE
  8
0
  6
CONTINUOUS
 62
     1
 10
334.575
 20
122.2
 11
337.275
 21
122.2
  0
LINE
  8
0
  6
CONTINUOUS
 62
     1
 10
337.275
 20
122.2
 11
337.275
 21
117.0
  0
LINE
  8
0
  6
CONTINUOUS
 62
     1
 10
337.275
 20
117.0
 11
334.575
 21
117.0
  0
ARC
  8
0
  6
CONTINUOUS
 62
     1
 10
334.575
 20
119.6
 40
2.6
 50
90.0
 51
270.0
  0
POINT
  8
0
  6
CONTINUOUS
 62
     1
 10
334.575
 20
122.2
  0
LINE
  8
0
  6
CONTINUOUS
 62
     1
 10
334.575
 20
122.4
 11
337.475
 21
122.4
  0
LINE
  8
0
  6
CONTINUOUS
 62
     1
 10
337.475
 20
122.4
 11
337.475
 21
116.8
  0
LINE
  8
0
  6
CONTINUOUS
 62
     1
 10
337.475
 20
116.8
 11
334.575001696
 21
116.8
  0
ARC
  8
0
  6
CONTINUOUS
 62
     1
 10
334.575
 20
119.6
 40
2.8
 50
90.0
 51
270.0
  0
LINE
  8
0
  6
CONTINUOUS
 62
     1
 10
331.075
 20
110.1
 11
338.0
 21
110.1
  0
LINE
  8
0
  6
CONTINUOUS
 62
     1
 10
338.0
 20
129.1
 11
331.075
 21
129.1
  0
LINE
  8
0
  6
CONTINUOUS
 62
     1
 10
316.275
 20
121.1
 11
327.075
 21
121.1
  0
ARC
  8
0
  6
CONTINUOUS
 62
     1
 10
327.075
 20
121.6
 40
0.5
 50
270.0
 51
0.0
  0
LINE
  8
0
  6
CONTINUOUS
 62
     1
 10
327.575
 20
121.6
 11
327.575
 21
128.6
  0
ARC
  8
0
  6
CONTINUOUS
 62
     1
 10
327.075
 20
128.6
 40
0.5
 50
0.0
 51
90.0
  0
LINE
  8
0
  6
CONTINUOUS
 62
     1
 10
327.075
 20
129.1
 11
316.275
 21
129.1
  0
LINE
  8
0
  6
CONTINUOUS
 62
     1
 10
316.275
 20
118.1
 11
327.075
 21
118.1
  0
ARC
  8
0
  6
CONTINUOUS
 62
     1
 10
327.075
 20
117.6
 40
0.5
 50
0.0
 51
90.0
  0
LINE
  8
0
  6
CONTINUOUS
 62
     1
 10
327.575
 20
117.6
 11
327.575
 21
110.6
  0
LINE
  8
0
  6
CONTINUOUS
 62
     3
 10
311.0
 20
91.3
 11
347.5
 21
91.3
  0
ARC
  8
0
  6
CONTINUOUS
 62
     3
 10
311.0
 20
92.3
 40
1.0
 50
216.869897646
 51
270.0
  0
LINE
  8
0
  6
CONTINUOUS
 62
     3
 10
310.2
 20
91.7
 11
304.7
 21
99.033333333
  0
ARC
  8
0
  6
CONTINUOUS
 62
     3
 10
305.5
 20
99.633333333
 40
1.0
 50
180.0
 51
216.869897646
  0
ARC
  8
0
  6
CONTINUOUS
 62
     3
 10
305.5
 20
237.966666667
 40
1.0
 50
143.130102354
 51
180.0
  0
LINE
  8
0
  6
CONTINUOUS
 62
     3
 10
311.0
 20
246.3
 11
347.5
 21
246.3
  0
LINE
  8
0
  6
CONTINUOUS
 62
     3
 10
310.2
 20
245.9
 11
304.7
 21
238.566666667
  0
ARC
  8
0
  6
CONTINUOUS
 62
     3
 10
311.0
 20
245.3
 40
1.0
 50
90.0
 51
143.130102354
  0
LINE
  8
0
  6
CONTINUOUS
 62
     3
 10
337.2
 20
106.1
 11
337.2
 21
91.3
  0
LINE
  8
0
  6
CONTINUOUS
 62
     3
 10
337.2
 20
246.3
 11
337.2
 21
133.1
  0
TEXT
  8
0
  6
CONTINUOUS
 62
     3
 10
119.05
 20
217.5
 30
0.0
 40
3.5
  1
ＤＴ－０３
 50
0.0
 41
1.0
 51
0.0
  7
KANJI6
  0
TEXT
  8
0
  6
CONTINUOUS
 62
     3
 10
119.6
 20
152.5
 30
0.0
 40
3.5
  1
デジサーモ
 50
0.0
 41
1.0
 51
10.0
  7
KANJI7
  0
TEXT
  8
0
  6
CONTINUOUS
 62
     2
 10
149.05
 20
217.3
 30
0.2
 40
3.0
  1
ＯＵＴ
 50
0.0
 41
0.666666667
 51
0.0
  7
KANJI8
  0
LINE
  8
0
  6
CONTINUOUS
 62
     2
 10
168.79
 20
169.2
 11
168.91
 21
169.2
  0
LINE
  8
0
  6
CONTINUOUS
 62
     2
 10
169.09
 20
168.9
 11
168.61
 21
168.9
  0
LINE
  8
0
  6
CONTINUOUS
 62
     2
 10
168.43
 20
168.6
 11
169.27
 21
168.6
  0
LINE
  8
0
  6
CONTINUOUS
 62
     2
 10
169.45
 20
168.3
 11
168.25
 21
168.3
  0
LINE
  8
0
  6
CONTINUOUS
 62
     2
 10
168.07
 20
168.0
 11
169.63
 21
168.0
  0
LINE
  8
0
  6
CONTINUOUS
 62
     2
 10
169.81
 20
167.7
 11
167.89
 21
167.7
  0
LINE
  8
0
  6
CONTINUOUS
 62
     2
 10
167.71
 20
167.4
 11
169.99
 21
167.4
  0
LINE
  8
0
  6
CONTINUOUS
 62
     2
 10
170.17
 20
167.1
 11
167.53
 21
167.1
  0
LINE
  8
0
  6
CONTINUOUS
 62
     2
 10
167.35
 20
166.8
 11
170.35
 21
166.8
  0
LINE
  8
0
  6
CONTINUOUS
 62
     2
 10
170.53
 20
166.5
 11
167.17
 21
166.5
  0
LINE
  8
0
  6
CONTINUOUS
 62
     2
 10
166.99
 20
166.2
 11
170.71
 21
166.2
  0
LINE
  8
0
  6
CONTINUOUS
 62
     2
 10
170.89
 20
165.9
 11
166.81
 21
165.9
  0
LINE
  8
0
  6
CONTINUOUS
 62
     2
 10
166.63
 20
165.6
 11
171.07
 21
165.6
  0
LINE
  8
0
  6
CONTINUOUS
 62
     2
 10
171.25
 20
165.3
 11
166.45
 21
165.3
  0
LINE
  8
0
  6
CONTINUOUS
 62
     2
 10
166.27
 20
165.0
 11
171.43
 21
165.0
  0
LINE
  8
0
  6
CONTINUOUS
 62
     2
 10
171.61
 20
164.7
 11
166.09
 21
164.7
  0
LINE
  8
0
  6
CONTINUOUS
 62
     2
 10
165.91
 20
164.4
 11
171.79
 21
164.4
  0
LINE
  8
0
  6
CONTINUOUS
 62
     2
 10
150.91
 20
168.2
 11
156.79
 21
168.2
  0
LINE
  8
0
  6
CONTINUOUS
 62
     2
 10
156.61
 20
167.9
 11
151.09
 21
167.9
  0
LINE
  8
0
  6
CONTINUOUS
 62
     2
 10
151.27
 20
167.6
 11
156.43
 21
167.6
  0
LINE
  8
0
  6
CONTINUOUS
 62
     2
 10
156.25
 20
167.3
 11
151.45
 21
167.3
  0
LINE
  8
0
  6
CONTINUOUS
 62
     2
 10
151.63
 20
167.0
 11
156.07
 21
167.0
  0
LINE
  8
0
  6
CONTINUOUS
 62
     2
 10
155.89
 20
166.7
 11
151.81
 21
166.7
  0
LINE
  8
0
  6
CONTINUOUS
 62
     2
 10
151.99
 20
166.4
 11
155.71
 21
166.4
  0
LINE
  8
0
  6
CONTINUOUS
 62
     2
 10
155.53
 20
166.1
 11
152.17
 21
166.1
  0
LINE
  8
0
  6
CONTINUOUS
 62
     2
 10
152.35
 20
165.8
 11
155.35
 21
165.8
  0
LINE
  8
0
  6
CONTINUOUS
 62
     2
 10
155.17
 20
165.5
 11
152.53
 21
165.5
  0
LINE
  8
0
  6
CONTINUOUS
 62
     2
 10
152.71
 20
165.2
 11
154.99
 21
165.2
  0
LINE
  8
0
  6
CONTINUOUS
 62
     2
 10
154.81
 20
164.9
 11
152.89
 21
164.9
  0
LINE
  8
0
  6
CONTINUOUS
 62
     2
 10
153.07
 20
164.6
 11
154.63
 21
164.6
  0
LINE
  8
0
  6
CONTINUOUS
 62
     2
 10
154.45
 20
164.3
 11
153.25
 21
164.3
  0
LINE
  8
0
  6
CONTINUOUS
 62
     2
 10
153.43
 20
164.0
 11
154.27
 21
164.0
  0
LINE
  8
0
  6
CONTINUOUS
 62
     2
 10
154.09
 20
163.7
 11
153.61
 21
163.7
  0
LINE
  8
0
  6
CONTINUOUS
 62
     2
 10
153.79
 20
163.4
 11
153.91
 21
163.4
  0
LINE
  8
0
  6
CONTINUOUS
 62
     2
 10
140.175
 20
163.705
 11
140.175
 21
168.895
  0
LINE
  8
0
  6
CONTINUOUS
 62
     2
 10
140.475
 20
169.075
 11
140.475
 21
163.525
  0
LINE
  8
0
  6
CONTINUOUS
 62
     2
 10
140.775
 20
163.345
 11
140.775
 21
169.255
  0
LINE
  8
0
  6
CONTINUOUS
 62
     2
 10
135.925
 20
166.255
 11
135.925
 21
166.345
  0
LINE
  8
0
  6
CONTINUOUS
 62
     2
 10
136.225
 20
166.525
 11
136.225
 21
166.075
  0
LINE
  8
0
  6
CONTINUOUS
 62
     2
 10
136.525
 20
165.895
 11
136.525
 21
166.705
  0
LINE
  8
0
  6
CONTINUOUS
 62
     2
 10
136.825
 20
166.885
 11
136.825
 21
165.715
  0
LINE
  8
0
  6
CONTINUOUS
 62
     2
 10
137.125
 20
165.535
 11
137.125
 21
167.065
  0
LINE
  8
0
  6
CONTINUOUS
 62
     2
 10
137.425
 20
167.245
 11
137.425
 21
165.355
  0
LINE
  8
0
  6
CONTINUOUS
 62
     2
 10
137.725
 20
165.175
 11
137.725
 21
167.425
  0
LINE
  8
0
  6
CONTINUOUS
 62
     2
 10
138.025
 20
167.605
 11
138.025
 21
164.995
  0
LINE
  8
0
  6
CONTINUOUS
 62
     2
 10
138.325
 20
164.815
 11
138.325
 21
167.785
  0
LINE
  8
0
  6
CONTINUOUS
 62
     2
 10
138.625
 20
167.965
 11
138.625
 21
164.635
  0
LINE
  8
0
  6
CONTINUOUS
 62
     2
 10
138.925
 20
164.455
 11
138.925
 21
168.145
  0
LINE
  8
0
  6
CONTINUOUS
 62
     2
 10
139.225
 20
168.325
 11
139.225
 21
164.275
  0
LINE
  8
0
  6
CONTINUOUS
 62
     2
 10
139.525
 20
168.505
 11
135.85
 21
166.3
  0
POLYLINE
  8
0
  6
CONTINUOUS
 62
     2
 66
     1
  0
VERTEX
  8
0
  6
CONTINUOUS
 62
     2
 10
135.85
 20
166.3
  0
VERTEX
  8
0
  6
CONTINUOUS
 62
     2
 10
139.525
 20
164.095
  0
VERTEX
  8
0
  6
CONTINUOUS
 62
     2
 10
139.525
 20
168.505
  0
SEQEND
  0
LINE
  8
0
  6
CONTINUOUS
 62
     3
 10
307.5
 20
225.3
 11
307.5
 21
148.3
  0
LINE
  8
0
  6
CONTINUOUS
 62
     3
 10
304.792893219
 20
228.007106781
 11
307.5
 21
225.3
  0
LINE
  8
0
  6
CONTINUOUS
 62
     3
 10
304.5
 20
237.966666667
 11
304.5
 21
228.714213562
  0
ARC
  8
0
  6
CONTINUOUS
 62
     3
 10
305.5
 20
228.714213562
 40
1.0
 50
180.0
 51
225.0
  0
LINE
  8
0
  6
CONTINUOUS
 62
     3
 10
307.5
 20
148.3
 11
304.792893219
 21
145.592893219
  0
LINE
  8
0
  6
CONTINUOUS
 62
     3
 10
304.5
 20
144.885786438
 11
304.5
 21
99.633333333
  0
ARC
  8
0
  6
CONTINUOUS
 62
     3
 10
305.5
 20
144.885786438
 40
1.0
 50
135.0
 51
180.0
  0
TEXT
  8
0
  6
CONTINUOUS
 62
     2
 10
317.8
 20
144.8
 30
0.0
 40
3.0
  1
ＡＣ１００Ｖ
 50
90.0
 41
0.9
 51
0.0
  7
KANJI9
  0
TEXT
  8
0
  6
CONTINUOUS
 62
     2
 10
321.9
 20
148.0
 30
0.0
 40
3.0
  1
１２Ａ
 50
90.0
 41
0.9
 51
0.0
  7
KANJI9
  0
LINE
  8
0
  6
CONTINUOUS
 62
     3
 10
341.0
 20
133.1
 11
312.0
 21
133.1
  0
ARC
  8
0
  6
CONTINUOUS
 62
     3
 10
312.0
 20
132.6
 40
0.5
 50
90.0
 51
180.0
  0
LINE
  8
0
  6
CONTINUOUS
 62
     3
 10
311.5
 20
132.6
 11
311.5
 21
106.6
  0
ARC
  8
0
  6
CONTINUOUS
 62
     3
 10
312.0
 20
106.6
 40
0.5
 50
180.0
 51
270.0
  0
LINE
  8
0
  6
CONTINUOUS
 62
     3
 10
312.0
 20
106.1
 11
341.0
 21
106.1
  0
ARC
  8
0
  6
CONTINUOUS
 62
     3
 10
341.0
 20
106.6
 40
0.5
 50
270.0
 51
0.0
  0
LINE
  8
0
  6
CONTINUOUS
 62
     3
 10
341.5
 20
106.6
 11
341.5
 21
132.6
  0
ARC
  8
0
  6
CONTINUOUS
 62
     3
 10
341.0
 20
132.6
 40
0.5
 50
0.0
 51
90.0
  0
POLYLINE
  8
0
  6
CONTINUOUS
 62
     2
 66
     1
 70
     1
  0
VERTEX
  8
0
  6
CONTINUOUS
 62
     2
 10
325.175
 20
127.1
  0
VERTEX
  8
0
  6
CONTINUOUS
 62
     2
 10
318.175
 20
127.1
  0
VERTEX
  8
0
  6
CONTINUOUS
 62
     2
 10
318.175
 20
125.1
  0
VERTEX
  8
0
  6
CONTINUOUS
 62
     2
 10
325.175
 20
125.1
  0
SEQEND
  0
POLYLINE
  8
0
  6
CONTINUOUS
 62
     2
 66
     1
 70
     1
  0
VERTEX
  8
0
  6
CONTINUOUS
 62
     2
 10
316.825
 20
114.1
  0
VERTEX
  8
0
  6
CONTINUOUS
 62
     2
 10
326.525
 20
114.1
  0
VERTEX
  8
0
  6
CONTINUOUS
 62
     2
 10
326.525
 20
112.1
  0
VERTEX
  8
0
  6
CONTINUOUS
 62
     2
 10
316.825
 20
112.1
  0
SEQEND
  0
LINE
  8
0
 62
    99
 10
0.0
 20
213.3
 11
420.0
 21
213.3
  0
LINE
  8
0
 62
    99
 10
120.6
 20
0.0
 11
120.6
 21
297.0
  0
LINE
  8
0
 62
    99
 10
0.0
 20
194.3
 11
420.0
 21
194.3
  0
LINE
  8
0
 62
    99
 10
120.6
 20
0.0
 11
120.6
 21
297.0
  0
LINE
  8
0
 62
    99
 10
0.0
 20
194.3
 11
420.0
 21
194.3
  0
LINE
  8
0
 62
    99
 10
0.0
 20
194.3
 11
420.0
 21
194.3
  0
LINE
  8
0
 62
    99
 10
0.0
 20
194.3
 11
420.0
 21
194.3
  0
LINE
  8
0
 62
    99
 10
172.1
 20
0.0
 11
172.1
 21
297.0
  0
LINE
  8
0
 62
    99
 10
0.0
 20
213.3
 11
420.0
 21
213.3
  0
LINE
  8
0
 62
    99
 10
146.35
 20
0.0
 11
146.35
 21
297.0
  0
POLYLINE
  8
0
  6
CONTINUOUS
 62
     2
 66
     1
 70
     1
  0
VERTEX
  8
0
  6
CONTINUOUS
 62
     2
 10
169.684906524
 20
190.781359552
  0
VERTEX
  8
0
  6
CONTINUOUS
 62
     2
 10
165.914524968
 20
190.781359552
  0
VERTEX
  8
0
  6
CONTINUOUS
 62
     2
 10
165.659439643
 20
190.590045558
  0
VERTEX
  8
0
  6
CONTINUOUS
 62
     2
 10
166.424695619
 20
189.76101825
  0
VERTEX
  8
0
  6
CONTINUOUS
 62
     2
 10
169.04719321
 20
189.76101825
  0
VERTEX
  8
0
  6
CONTINUOUS
 62
     2
 10
169.939991849
 20
190.526274226
  0
SEQEND
  0
LINE
  8
0
  6
CONTINUOUS
 62
     2
 10
170.067534512
 20
190.398731563
 11
169.174735873
 21
189.633475587
  0
LINE
  8
0
  6
CONTINUOUS
 62
     2
 10
169.174735873
 20
189.633475587
 11
168.792107885
 21
186.444909017
  0
LINE
  8
0
  6
CONTINUOUS
 62
     2
 10
168.792107885
 20
186.444909017
 11
169.366049867
 21
185.807195703
  0
LINE
  8
0
  6
CONTINUOUS
 62
     2
 10
169.366049867
 20
185.807195703
 11
169.812449187
 21
186.189823692
  0
LINE
  8
0
  6
CONTINUOUS
 62
     2
 10
169.812449187
 20
186.189823692
 11
170.322619838
 21
190.143646238
  0
LINE
  8
0
  6
CONTINUOUS
 62
     2
 10
170.322619838
 20
190.143646238
 11
170.067534512
 21
190.398731563
  0
LINE
  8
0
  6
CONTINUOUS
 62
     2
 10
168.792107885
 20
186.189823692
 11
169.238507204
 21
185.679653041
  0
LINE
  8
0
  6
CONTINUOUS
 62
     2
 10
169.366049867
 20
185.552110378
 11
168.60079389
 21
184.914397064
  0
LINE
  8
0
  6
CONTINUOUS
 62
     2
 10
168.60079389
 20
184.914397064
 11
168.154394571
 21
181.662059163
  0
LINE
  8
0
  6
CONTINUOUS
 62
     2
 10
168.154394571
 20
181.662059163
 11
168.855879216
 21
180.896803187
  0
LINE
  8
0
  6
CONTINUOUS
 62
     2
 10
168.919650547
 20
180.896803187
 11
169.174735873
 21
181.088117181
  0
LINE
  8
0
  6
CONTINUOUS
 62
     2
 10
169.174735873
 20
181.088117181
 11
169.684906524
 21
185.16948239
  0
LINE
  8
0
  6
CONTINUOUS
 62
     2
 10
169.684906524
 20
185.16948239
 11
169.366049867
 21
185.552110378
  0
LINE
  8
0
  6
CONTINUOUS
 62
     2
 10
169.238507204
 20
185.679653041
 11
168.60079389
 21
185.16948239
  0
LINE
  8
0
  6
CONTINUOUS
 62
     2
 10
168.60079389
 20
185.16948239
 11
165.595668311
 21
185.16948239
  0
LINE
  8
0
  6
CONTINUOUS
 62
     2
 10
165.595668311
 20
185.16948239
 11
165.149268992
 21
185.679653041
  0
LINE
  8
0
  6
CONTINUOUS
 62
     2
 10
165.021726329
 20
185.552110378
 11
164.575327009
 21
185.16948239
  0
LINE
  8
0
  6
CONTINUOUS
 62
     2
 10
164.575327009
 20
185.16948239
 11
164.065156358
 21
181.215659844
  0
LINE
  8
0
  6
CONTINUOUS
 62
     2
 10
164.065156358
 20
181.215659844
 11
164.320241684
 21
180.960574518
  0
LINE
  8
0
  6
CONTINUOUS
 62
     2
 10
164.320241684
 20
180.960574518
 11
165.213040323
 21
181.725830495
  0
LINE
  8
0
  6
CONTINUOUS
 62
     2
 10
165.213040323
 20
181.725830495
 11
165.595668311
 21
184.914397064
  0
LINE
  8
0
  6
CONTINUOUS
 62
     2
 10
165.595668311
 20
184.914397064
 11
165.021726329
 21
185.552110378
  0
LINE
  8
0
  6
CONTINUOUS
 62
     2
 10
165.340582986
 20
181.598287832
 11
167.963080576
 21
181.598287832
  0
LINE
  8
0
  6
CONTINUOUS
 62
     2
 10
167.963080576
 20
181.598287832
 11
168.728336553
 21
180.769260524
  0
LINE
  8
0
  6
CONTINUOUS
 62
     2
 10
168.728336553
 20
180.769260524
 11
168.473251228
 21
180.57794653
  0
LINE
  8
0
  6
CONTINUOUS
 62
     2
 10
168.473251228
 20
180.57794653
 11
164.702869672
 21
180.57794653
  0
LINE
  8
0
  6
CONTINUOUS
 62
     2
 10
164.702869672
 20
180.57794653
 11
164.447784346
 21
180.833031855
  0
LINE
  8
0
  6
CONTINUOUS
 62
     2
 10
164.447784346
 20
180.833031855
 11
165.340582986
 21
181.598287832
  0
LINE
  8
0
  6
CONTINUOUS
 62
     2
 10
165.786982305
 20
186.444909017
 11
165.021726329
 21
185.807195703
  0
LINE
  8
0
  6
CONTINUOUS
 62
     2
 10
165.021726329
 20
185.807195703
 11
164.702869672
 21
186.189823692
  0
LINE
  8
0
  6
CONTINUOUS
 62
     2
 10
164.702869672
 20
186.189823692
 11
165.213040323
 21
190.271188901
  0
LINE
  8
0
  6
CONTINUOUS
 62
     2
 10
165.213040323
 20
190.271188901
 11
165.468125648
 21
190.462502895
  0
LINE
  8
0
  6
CONTINUOUS
 62
     2
 10
165.53189698
 20
190.462502895
 11
166.233381625
 21
189.697246918
  0
LINE
  8
0
  6
CONTINUOUS
 62
     2
 10
166.233381625
 20
189.697246918
 11
165.786982305
 21
186.444909017
  0
CIRCLE
  8
0
  6
CONTINUOUS
 62
     2
 10
170.54973
 20
181.120182
 40
0.519992
  0
LINE
  8
0
  6
CONTINUOUS
 62
     2
 10
165.786982305
 20
186.189823692
 11
168.792107885
 21
186.189823692
  0
LINE
  8
0
  6
CONTINUOUS
 62
     2
 10
165.149268992
 20
185.679653041
 11
165.786982305
 21
186.189823692
  0
POLYLINE
  8
0
  6
CONTINUOUS
 62
     2
 66
     1
 70
     1
  0
VERTEX
  8
0
  6
CONTINUOUS
 62
     2
 10
159.484906524
 20
190.781359552
  0
VERTEX
  8
0
  6
CONTINUOUS
 62
     2
 10
155.714524968
 20
190.781359552
  0
VERTEX
  8
0
  6
CONTINUOUS
 62
     2
 10
155.459439643
 20
190.590045558
  0
VERTEX
  8
0
  6
CONTINUOUS
 62
     2
 10
156.224695619
 20
189.76101825
  0
VERTEX
  8
0
  6
CONTINUOUS
 62
     2
 10
158.84719321
 20
189.76101825
  0
VERTEX
  8
0
  6
CONTINUOUS
 62
     2
 10
159.739991849
 20
190.526274226
  0
SEQEND
  0
LINE
  8
0
  6
CONTINUOUS
 62
     2
 10
159.867534512
 20
190.398731563
 11
158.974735873
 21
189.633475587
  0
LINE
  8
0
  6
CONTINUOUS
 62
     2
 10
158.974735873
 20
189.633475587
 11
158.592107885
 21
186.444909017
  0
LINE
  8
0
  6
CONTINUOUS
 62
     2
 10
158.592107885
 20
186.444909017
 11
159.166049867
 21
185.807195703
  0
LINE
  8
0
  6
CONTINUOUS
 62
     2
 10
159.166049867
 20
185.807195703
 11
159.612449187
 21
186.189823692
  0
LINE
  8
0
  6
CONTINUOUS
 62
     2
 10
159.612449187
 20
186.189823692
 11
160.122619838
 21
190.143646238
  0
LINE
  8
0
  6
CONTINUOUS
 62
     2
 10
160.122619838
 20
190.143646238
 11
159.867534512
 21
190.398731563
  0
LINE
  8
0
  6
CONTINUOUS
 62
     2
 10
158.592107885
 20
186.189823692
 11
159.038507204
 21
185.679653041
  0
LINE
  8
0
  6
CONTINUOUS
 62
     2
 10
159.166049867
 20
185.552110378
 11
158.40079389
 21
184.914397064
  0
LINE
  8
0
  6
CONTINUOUS
 62
     2
 10
158.40079389
 20
184.914397064
 11
157.954394571
 21
181.662059163
  0
LINE
  8
0
  6
CONTINUOUS
 62
     2
 10
157.954394571
 20
181.662059163
 11
158.655879216
 21
180.896803187
  0
LINE
  8
0
  6
CONTINUOUS
 62
     2
 10
158.719650547
 20
180.896803187
 11
158.974735873
 21
181.088117181
  0
LINE
  8
0
  6
CONTINUOUS
 62
     2
 10
158.974735873
 20
181.088117181
 11
159.484906524
 21
185.16948239
  0
LINE
  8
0
  6
CONTINUOUS
 62
     2
 10
159.484906524
 20
185.16948239
 11
159.166049867
 21
185.552110378
  0
LINE
  8
0
  6
CONTINUOUS
 62
     2
 10
159.038507204
 20
185.679653041
 11
158.40079389
 21
185.16948239
  0
LINE
  8
0
  6
CONTINUOUS
 62
     2
 10
158.40079389
 20
185.16948239
 11
155.395668311
 21
185.16948239
  0
LINE
  8
0
  6
CONTINUOUS
 62
     2
 10
155.395668311
 20
185.16948239
 11
154.949268992
 21
185.679653041
  0
LINE
  8
0
  6
CONTINUOUS
 62
     2
 10
154.821726329
 20
185.552110378
 11
154.375327009
 21
185.16948239
  0
LINE
  8
0
  6
CONTINUOUS
 62
     2
 10
154.375327009
 20
185.16948239
 11
153.865156358
 21
181.215659844
  0
LINE
  8
0
  6
CONTINUOUS
 62
     2
 10
153.865156358
 20
181.215659844
 11
154.120241684
 21
180.960574518
  0
LINE
  8
0
  6
CONTINUOUS
 62
     2
 10
155.395668311
 20
184.914397064
 11
154.821726329
 21
185.552110378
  0
LINE
  8
0
  6
CONTINUOUS
 62
     2
 10
157.763080576
 20
181.598287832
 11
158.528336553
 21
180.769260524
  0
LINE
  8
0
  6
CONTINUOUS
 62
     2
 10
158.528336553
 20
180.769260524
 11
158.273251228
 21
180.57794653
  0
LINE
  8
0
  6
CONTINUOUS
 62
     2
 10
154.502869672
 20
180.57794653
 11
154.247784346
 21
180.833031855
  0
LINE
  8
0
  6
CONTINUOUS
 62
     2
 10
155.586982305
 20
186.444909017
 11
154.821726329
 21
185.807195703
  0
LINE
  8
0
  6
CONTINUOUS
 62
     2
 10
154.821726329
 20
185.807195703
 11
154.502869672
 21
186.189823692
  0
LINE
  8
0
  6
CONTINUOUS
 62
     2
 10
154.502869672
 20
186.189823692
 11
155.013040323
 21
190.271188901
  0
LINE
  8
0
  6
CONTINUOUS
 62
     2
 10
155.013040323
 20
190.271188901
 11
155.268125648
 21
190.462502895
  0
LINE
  8
0
  6
CONTINUOUS
 62
     2
 10
155.33189698
 20
190.462502895
 11
156.033381625
 21
189.697246918
  0
LINE
  8
0
  6
CONTINUOUS
 62
     2
 10
156.033381625
 20
189.697246918
 11
155.586982305
 21
186.444909017
  0
CIRCLE
  8
0
  6
CONTINUOUS
 62
     2
 10
160.34973
 20
181.120182
 40
0.519992
  0
LINE
  8
0
  6
CONTINUOUS
 62
     2
 10
155.586982305
 20
186.189823692
 11
158.592107885
 21
186.189823692
  0
LINE
  8
0
  6
CONTINUOUS
 62
     2
 10
154.949268992
 20
185.679653041
 11
155.586982305
 21
186.189823692
  0
LINE
  8
0
  6
CONTINUOUS
 62
     2
 10
158.273251228
 20
180.57794653
 11
154.502869672
 21
180.57794653
  0
POLYLINE
  8
0
  6
CONTINUOUS
 62
     2
 66
     1
  0
VERTEX
  8
0
  6
CONTINUOUS
 62
     2
 10
154.120241684
 20
180.960574518
  0
VERTEX
  8
0
  6
CONTINUOUS
 62
     2
 10
155.013040323
 20
181.725830495
  0
VERTEX
  8
0
  6
CONTINUOUS
 62
     2
 10
155.395668311
 20
184.914397064
  0
SEQEND
  0
LINE
  8
0
  6
CONTINUOUS
 62
     2
 10
155.140582986
 20
181.598287832
 11
157.763080576
 21
181.598287832
  0
LINE
  8
0
  6
CONTINUOUS
 62
     2
 10
154.247784346
 20
180.833031855
 11
155.140582986
 21
181.598287832
  0
POLYLINE
  8
0
  6
CONTINUOUS
 62
     2
 66
     1
 70
     1
  0
VERTEX
  8
0
  6
CONTINUOUS
 62
     2
 10
149.284906524
 20
190.781359552
  0
VERTEX
  8
0
  6
CONTINUOUS
 62
     2
 10
145.514524968
 20
190.781359552
  0
VERTEX
  8
0
  6
CONTINUOUS
 62
     2
 10
145.259439643
 20
190.590045558
  0
VERTEX
  8
0
  6
CONTINUOUS
 62
     2
 10
146.024695619
 20
189.76101825
  0
VERTEX
  8
0
  6
CONTINUOUS
 62
     2
 10
148.64719321
 20
189.76101825
  0
VERTEX
  8
0
  6
CONTINUOUS
 62
     2
 10
149.539991849
 20
190.526274226
  0
SEQEND
  0
LINE
  8
0
  6
CONTINUOUS
 62
     2
 10
149.667534512
 20
190.398731563
 11
148.774735873
 21
189.633475587
  0
LINE
  8
0
  6
CONTINUOUS
 62
     2
 10
148.774735873
 20
189.633475587
 11
148.392107885
 21
186.444909017
  0
LINE
  8
0
  6
CONTINUOUS
 62
     2
 10
148.392107885
 20
186.444909017
 11
148.966049867
 21
185.807195703
  0
LINE
  8
0
  6
CONTINUOUS
 62
     2
 10
148.966049867
 20
185.807195703
 11
149.412449187
 21
186.189823692
  0
LINE
  8
0
  6
CONTINUOUS
 62
     2
 10
149.412449187
 20
186.189823692
 11
149.922619838
 21
190.143646238
  0
LINE
  8
0
  6
CONTINUOUS
 62
     2
 10
149.922619838
 20
190.143646238
 11
149.667534512
 21
190.398731563
  0
LINE
  8
0
  6
CONTINUOUS
 62
     2
 10
148.392107885
 20
186.189823692
 11
148.838507204
 21
185.679653041
  0
LINE
  8
0
  6
CONTINUOUS
 62
     2
 10
148.966049867
 20
185.552110378
 11
148.20079389
 21
184.914397064
  0
LINE
  8
0
  6
CONTINUOUS
 62
     2
 10
148.20079389
 20
184.914397064
 11
147.754394571
 21
181.662059163
  0
LINE
  8
0
  6
CONTINUOUS
 62
     2
 10
147.754394571
 20
181.662059163
 11
148.455879216
 21
180.896803187
  0
LINE
  8
0
  6
CONTINUOUS
 62
     2
 10
148.519650547
 20
180.896803187
 11
148.774735873
 21
181.088117181
  0
LINE
  8
0
  6
CONTINUOUS
 62
     2
 10
148.774735873
 20
181.088117181
 11
149.284906524
 21
185.16948239
  0
LINE
  8
0
  6
CONTINUOUS
 62
     2
 10
149.284906524
 20
185.16948239
 11
148.966049867
 21
185.552110378
  0
LINE
  8
0
  6
CONTINUOUS
 62
     2
 10
148.838507204
 20
185.679653041
 11
148.20079389
 21
185.16948239
  0
LINE
  8
0
  6
CONTINUOUS
 62
     2
 10
148.20079389
 20
185.16948239
 11
145.195668311
 21
185.16948239
  0
LINE
  8
0
  6
CONTINUOUS
 62
     2
 10
145.195668311
 20
185.16948239
 11
144.749268992
 21
185.679653041
  0
LINE
  8
0
  6
CONTINUOUS
 62
     2
 10
144.621726329
 20
185.552110378
 11
144.175327009
 21
185.16948239
  0
LINE
  8
0
  6
CONTINUOUS
 62
     2
 10
144.175327009
 20
185.16948239
 11
143.665156358
 21
181.215659844
  0
LINE
  8
0
  6
CONTINUOUS
 62
     2
 10
143.665156358
 20
181.215659844
 11
143.920241684
 21
180.960574518
  0
LINE
  8
0
  6
CONTINUOUS
 62
     2
 10
143.920241684
 20
180.960574518
 11
144.813040323
 21
181.725830495
  0
LINE
  8
0
  6
CONTINUOUS
 62
     2
 10
144.813040323
 20
181.725830495
 11
145.195668311
 21
184.914397064
  0
LINE
  8
0
  6
CONTINUOUS
 62
     2
 10
145.195668311
 20
184.914397064
 11
144.621726329
 21
185.552110378
  0
LINE
  8
0
  6
CONTINUOUS
 62
     2
 10
144.940582986
 20
181.598287832
 11
147.563080576
 21
181.598287832
  0
LINE
  8
0
  6
CONTINUOUS
 62
     2
 10
147.563080576
 20
181.598287832
 11
148.328336553
 21
180.769260524
  0
LINE
  8
0
  6
CONTINUOUS
 62
     2
 10
148.328336553
 20
180.769260524
 11
148.073251228
 21
180.57794653
  0
LINE
  8
0
  6
CONTINUOUS
 62
     2
 10
148.073251228
 20
180.57794653
 11
144.302869672
 21
180.57794653
  0
LINE
  8
0
  6
CONTINUOUS
 62
     2
 10
144.302869672
 20
180.57794653
 11
144.047784346
 21
180.833031855
  0
LINE
  8
0
  6
CONTINUOUS
 62
     2
 10
144.047784346
 20
180.833031855
 11
144.940582986
 21
181.598287832
  0
LINE
  8
0
  6
CONTINUOUS
 62
     2
 10
145.386982305
 20
186.444909017
 11
144.621726329
 21
185.807195703
  0
LINE
  8
0
  6
CONTINUOUS
 62
     2
 10
144.621726329
 20
185.807195703
 11
144.302869672
 21
186.189823692
  0
LINE
  8
0
  6
CONTINUOUS
 62
     2
 10
144.302869672
 20
186.189823692
 11
144.813040323
 21
190.271188901
  0
LINE
  8
0
  6
CONTINUOUS
 62
     2
 10
144.813040323
 20
190.271188901
 11
145.068125648
 21
190.462502895
  0
LINE
  8
0
  6
CONTINUOUS
 62
     2
 10
145.13189698
 20
190.462502895
 11
145.833381625
 21
189.697246918
  0
LINE
  8
0
  6
CONTINUOUS
 62
     2
 10
145.833381625
 20
189.697246918
 11
145.386982305
 21
186.444909017
  0
CIRCLE
  8
0
  6
CONTINUOUS
 62
     2
 10
150.14973
 20
181.120182
 40
0.519992
  0
LINE
  8
0
  6
CONTINUOUS
 62
     2
 10
145.386982305
 20
186.189823692
 11
148.392107885
 21
186.189823692
  0
LINE
  8
0
  6
CONTINUOUS
 62
     2
 10
144.749268992
 20
185.679653041
 11
145.386982305
 21
186.189823692
  0
POLYLINE
  8
0
  6
CONTINUOUS
 62
     2
 66
     1
 70
     1
  0
VERTEX
  8
0
  6
CONTINUOUS
 62
     2
 10
139.084906524
 20
190.781359552
  0
VERTEX
  8
0
  6
CONTINUOUS
 62
     2
 10
135.314524968
 20
190.781359552
  0
VERTEX
  8
0
  6
CONTINUOUS
 62
     2
 10
135.059439643
 20
190.590045558
  0
VERTEX
  8
0
  6
CONTINUOUS
 62
     2
 10
135.824695619
 20
189.76101825
  0
VERTEX
  8
0
  6
CONTINUOUS
 62
     2
 10
138.44719321
 20
189.76101825
  0
VERTEX
  8
0
  6
CONTINUOUS
 62
     2
 10
139.339991849
 20
190.526274226
  0
SEQEND
  0
LINE
  8
0
  6
CONTINUOUS
 62
     2
 10
139.467534512
 20
190.398731563
 11
138.574735873
 21
189.633475587
  0
LINE
  8
0
  6
CONTINUOUS
 62
     2
 10
138.574735873
 20
189.633475587
 11
138.192107885
 21
186.444909017
  0
LINE
  8
0
  6
CONTINUOUS
 62
     2
 10
138.192107885
 20
186.444909017
 11
138.766049867
 21
185.807195703
  0
LINE
  8
0
  6
CONTINUOUS
 62
     2
 10
138.766049867
 20
185.807195703
 11
139.212449187
 21
186.189823692
  0
LINE
  8
0
  6
CONTINUOUS
 62
     2
 10
139.212449187
 20
186.189823692
 11
139.722619838
 21
190.143646238
  0
LINE
  8
0
  6
CONTINUOUS
 62
     2
 10
139.722619838
 20
190.143646238
 11
139.467534512
 21
190.398731563
  0
LINE
  8
0
  6
CONTINUOUS
 62
     2
 10
138.192107885
 20
186.189823692
 11
138.638507204
 21
185.679653041
  0
LINE
  8
0
  6
CONTINUOUS
 62
     2
 10
138.766049867
 20
185.552110378
 11
138.00079389
 21
184.914397064
  0
LINE
  8
0
  6
CONTINUOUS
 62
     2
 10
138.00079389
 20
184.914397064
 11
137.554394571
 21
181.662059163
  0
LINE
  8
0
  6
CONTINUOUS
 62
     2
 10
137.554394571
 20
181.662059163
 11
138.255879216
 21
180.896803187
  0
LINE
  8
0
  6
CONTINUOUS
 62
     2
 10
138.319650547
 20
180.896803187
 11
138.574735873
 21
181.088117181
  0
LINE
  8
0
  6
CONTINUOUS
 62
     2
 10
138.574735873
 20
181.088117181
 11
139.084906524
 21
185.16948239
  0
LINE
  8
0
  6
CONTINUOUS
 62
     2
 10
139.084906524
 20
185.16948239
 11
138.766049867
 21
185.552110378
  0
LINE
  8
0
  6
CONTINUOUS
 62
     2
 10
138.638507204
 20
185.679653041
 11
138.00079389
 21
185.16948239
  0
LINE
  8
0
  6
CONTINUOUS
 62
     2
 10
138.00079389
 20
185.16948239
 11
134.995668311
 21
185.16948239
  0
LINE
  8
0
  6
CONTINUOUS
 62
     2
 10
134.995668311
 20
185.16948239
 11
134.549268992
 21
185.679653041
  0
LINE
  8
0
  6
CONTINUOUS
 62
     2
 10
134.421726329
 20
185.552110378
 11
133.975327009
 21
185.16948239
  0
LINE
  8
0
  6
CONTINUOUS
 62
     2
 10
133.975327009
 20
185.16948239
 11
133.465156358
 21
181.215659844
  0
LINE
  8
0
  6
CONTINUOUS
 62
     2
 10
133.465156358
 20
181.215659844
 11
133.720241684
 21
180.960574518
  0
LINE
  8
0
  6
CONTINUOUS
 62
     2
 10
133.720241684
 20
180.960574518
 11
134.613040323
 21
181.725830495
  0
LINE
  8
0
  6
CONTINUOUS
 62
     2
 10
134.613040323
 20
181.725830495
 11
134.995668311
 21
184.914397064
  0
LINE
  8
0
  6
CONTINUOUS
 62
     2
 10
134.995668311
 20
184.914397064
 11
134.421726329
 21
185.552110378
  0
LINE
  8
0
  6
CONTINUOUS
 62
     2
 10
134.740582986
 20
181.598287832
 11
137.363080576
 21
181.598287832
  0
LINE
  8
0
  6
CONTINUOUS
 62
     2
 10
137.363080576
 20
181.598287832
 11
138.128336553
 21
180.769260524
  0
LINE
  8
0
  6
CONTINUOUS
 62
     2
 10
138.128336553
 20
180.769260524
 11
137.873251228
 21
180.57794653
  0
LINE
  8
0
  6
CONTINUOUS
 62
     2
 10
137.873251228
 20
180.57794653
 11
134.102869672
 21
180.57794653
  0
LINE
  8
0
  6
CONTINUOUS
 62
     2
 10
134.102869672
 20
180.57794653
 11
133.847784346
 21
180.833031855
  0
LINE
  8
0
  6
CONTINUOUS
 62
     2
 10
133.847784346
 20
180.833031855
 11
134.740582986
 21
181.598287832
  0
LINE
  8
0
  6
CONTINUOUS
 62
     2
 10
135.186982305
 20
186.444909017
 11
134.421726329
 21
185.807195703
  0
LINE
  8
0
  6
CONTINUOUS
 62
     2
 10
134.421726329
 20
185.807195703
 11
134.102869672
 21
186.189823692
  0
LINE
  8
0
  6
CONTINUOUS
 62
     2
 10
134.102869672
 20
186.189823692
 11
134.613040323
 21
190.271188901
  0
LINE
  8
0
  6
CONTINUOUS
 62
     2
 10
134.613040323
 20
190.271188901
 11
134.868125648
 21
190.462502895
  0
LINE
  8
0
  6
CONTINUOUS
 62
     2
 10
134.93189698
 20
190.462502895
 11
135.633381625
 21
189.697246918
  0
LINE
  8
0
  6
CONTINUOUS
 62
     2
 10
135.633381625
 20
189.697246918
 11
135.186982305
 21
186.444909017
  0
CIRCLE
  8
0
  6
CONTINUOUS
 62
     2
 10
139.94973
 20
181.120182
 40
0.519992
  0
LINE
  8
0
  6
CONTINUOUS
 62
     2
 10
135.186982305
 20
186.189823692
 11
138.192107885
 21
186.189823692
  0
LINE
  8
0
  6
CONTINUOUS
 62
     2
 10
134.549268992
 20
185.679653041
 11
135.186982305
 21
186.189823692
  0
POLYLINE
  8
0
  6
CONTINUOUS
 62
     2
 66
     1
 70
     1
  0
VERTEX
  8
0
  6
CONTINUOUS
 62
     2
 10
143.413133384
 20
211.346759721
  0
VERTEX
  8
0
  6
CONTINUOUS
 62
     2
 10
137.701005327
 20
211.346759721
  0
VERTEX
  8
0
  6
CONTINUOUS
 62
     2
 10
137.314551059
 20
211.05691902
  0
VERTEX
  8
0
  6
CONTINUOUS
 62
     2
 10
138.473913863
 20
209.800942648
  0
VERTEX
  8
0
  6
CONTINUOUS
 62
     2
 10
142.446997713
 20
209.800942648
  0
VERTEX
  8
0
  6
CONTINUOUS
 62
     2
 10
143.799587652
 20
210.960305453
  0
SEQEND
  0
LINE
  8
0
  6
CONTINUOUS
 62
     2
 10
143.992814786
 20
210.767078319
 11
142.640224847
 21
209.607715514
  0
LINE
  8
0
  6
CONTINUOUS
 62
     2
 10
142.640224847
 20
209.607715514
 11
142.060543445
 21
204.777037161
  0
LINE
  8
0
  6
CONTINUOUS
 62
     2
 10
142.060543445
 20
204.777037161
 11
142.930065548
 21
203.810901491
  0
LINE
  8
0
  6
CONTINUOUS
 62
     2
 10
142.930065548
 20
203.810901491
 11
143.606360518
 21
204.390582893
  0
LINE
  8
0
  6
CONTINUOUS
 62
     2
 10
143.606360518
 20
204.390582893
 11
144.379269054
 21
210.38062405
  0
LINE
  8
0
  6
CONTINUOUS
 62
     2
 10
144.379269054
 20
210.38062405
 11
143.992814786
 21
210.767078319
  0
LINE
  8
0
  6
CONTINUOUS
 62
     2
 10
142.060543445
 20
204.390582893
 11
142.736838414
 21
203.617674357
  0
LINE
  8
0
  6
CONTINUOUS
 62
     2
 10
142.930065548
 20
203.424447223
 11
141.770702744
 21
202.458311552
  0
LINE
  8
0
  6
CONTINUOUS
 62
     2
 10
141.770702744
 20
202.458311552
 11
141.094407775
 21
197.531019632
  0
LINE
  8
0
  6
CONTINUOUS
 62
     2
 10
141.094407775
 20
197.531019632
 11
142.157157012
 21
196.371656828
  0
LINE
  8
0
  6
CONTINUOUS
 62
     2
 10
142.253770579
 20
196.371656828
 11
142.640224847
 21
196.661497529
  0
LINE
  8
0
  6
CONTINUOUS
 62
     2
 10
142.640224847
 20
196.661497529
 11
143.413133384
 21
202.84476582
  0
LINE
  8
0
  6
CONTINUOUS
 62
     2
 10
143.413133384
 20
202.84476582
 11
142.930065548
 21
203.424447223
  0
LINE
  8
0
  6
CONTINUOUS
 62
     2
 10
142.736838414
 20
203.617674357
 11
141.770702744
 21
202.84476582
  0
LINE
  8
0
  6
CONTINUOUS
 62
     2
 10
141.770702744
 20
202.84476582
 11
137.217937492
 21
202.84476582
  0
LINE
  8
0
  6
CONTINUOUS
 62
     2
 10
137.217937492
 20
202.84476582
 11
136.541642522
 21
203.617674357
  0
LINE
  8
0
  6
CONTINUOUS
 62
     2
 10
136.348415388
 20
203.424447223
 11
135.672120419
 21
202.84476582
  0
LINE
  8
0
  6
CONTINUOUS
 62
     2
 10
135.672120419
 20
202.84476582
 11
134.899211882
 21
196.854724663
  0
LINE
  8
0
  6
CONTINUOUS
 62
     2
 10
134.899211882
 20
196.854724663
 11
135.285666151
 21
196.468270395
  0
LINE
  8
0
  6
CONTINUOUS
 62
     2
 10
135.285666151
 20
196.468270395
 11
136.638256089
 21
197.627633199
  0
LINE
  8
0
  6
CONTINUOUS
 62
     2
 10
136.638256089
 20
197.627633199
 11
137.217937492
 21
202.458311552
  0
LINE
  8
0
  6
CONTINUOUS
 62
     2
 10
137.217937492
 20
202.458311552
 11
136.348415388
 21
203.424447223
  0
LINE
  8
0
  6
CONTINUOUS
 62
     2
 10
136.831483223
 20
197.434406065
 11
140.804567073
 21
197.434406065
  0
LINE
  8
0
  6
CONTINUOUS
 62
     2
 10
140.804567073
 20
197.434406065
 11
141.963929878
 21
196.178429694
  0
LINE
  8
0
  6
CONTINUOUS
 62
     2
 10
141.963929878
 20
196.178429694
 11
141.57747561
 21
195.888588993
  0
LINE
  8
0
  6
CONTINUOUS
 62
     2
 10
141.57747561
 20
195.888588993
 11
135.865347553
 21
195.888588993
  0
LINE
  8
0
  6
CONTINUOUS
 62
     2
 10
135.865347553
 20
195.888588993
 11
135.478893285
 21
196.275043261
  0
LINE
  8
0
  6
CONTINUOUS
 62
     2
 10
135.478893285
 20
196.275043261
 11
136.831483223
 21
197.434406065
  0
LINE
  8
0
  6
CONTINUOUS
 62
     2
 10
137.507778193
 20
204.777037161
 11
136.348415388
 21
203.810901491
  0
LINE
  8
0
  6
CONTINUOUS
 62
     2
 10
136.348415388
 20
203.810901491
 11
135.865347553
 21
204.390582893
  0
LINE
  8
0
  6
CONTINUOUS
 62
     2
 10
135.865347553
 20
204.390582893
 11
136.638256089
 21
210.573851184
  0
LINE
  8
0
  6
CONTINUOUS
 62
     2
 10
136.638256089
 20
210.573851184
 11
137.024710357
 21
210.863691886
  0
LINE
  8
0
  6
CONTINUOUS
 62
     2
 10
137.121323924
 20
210.863691886
 11
138.184073162
 21
209.704329081
  0
LINE
  8
0
  6
CONTINUOUS
 62
     2
 10
138.184073162
 20
209.704329081
 11
137.507778193
 21
204.777037161
  0
CIRCLE
  8
0
  6
CONTINUOUS
 62
     2
 10
144.72334095
 20
196.71007573
 40
0.78778788
  0
LINE
  8
0
  6
CONTINUOUS
 62
     2
 10
137.507778193
 20
204.390582893
 11
142.060543445
 21
204.390582893
  0
LINE
  8
0
  6
CONTINUOUS
 62
     2
 10
136.541642522
 20
203.617674357
 11
137.507778193
 21
204.390582893
  0
POLYLINE
  8
0
  6
CONTINUOUS
 62
     2
 66
     1
 70
     1
  0
VERTEX
  8
0
  6
CONTINUOUS
 62
     2
 10
130.913133384
 20
211.346759721
  0
VERTEX
  8
0
  6
CONTINUOUS
 62
     2
 10
125.201005327
 20
211.346759721
  0
VERTEX
  8
0
  6
CONTINUOUS
 62
     2
 10
124.814551059
 20
211.05691902
  0
VERTEX
  8
0
  6
CONTINUOUS
 62
     2
 10
125.973913863
 20
209.800942648
  0
VERTEX
  8
0
  6
CONTINUOUS
 62
     2
 10
129.946997713
 20
209.800942648
  0
VERTEX
  8
0
  6
CONTINUOUS
 62
     2
 10
131.299587652
 20
210.960305453
  0
SEQEND
  0
LINE
  8
0
  6
CONTINUOUS
 62
     2
 10
131.492814786
 20
210.767078319
 11
130.140224847
 21
209.607715514
  0
LINE
  8
0
  6
CONTINUOUS
 62
     2
 10
130.140224847
 20
209.607715514
 11
129.560543445
 21
204.777037161
  0
LINE
  8
0
  6
CONTINUOUS
 62
     2
 10
129.560543445
 20
204.777037161
 11
130.430065548
 21
203.810901491
  0
LINE
  8
0
  6
CONTINUOUS
 62
     2
 10
130.430065548
 20
203.810901491
 11
131.106360518
 21
204.390582893
  0
LINE
  8
0
  6
CONTINUOUS
 62
     2
 10
131.106360518
 20
204.390582893
 11
131.879269054
 21
210.38062405
  0
LINE
  8
0
  6
CONTINUOUS
 62
     2
 10
131.879269054
 20
210.38062405
 11
131.492814786
 21
210.767078319
  0
LINE
  8
0
  6
CONTINUOUS
 62
     2
 10
129.560543445
 20
204.390582893
 11
130.236838414
 21
203.617674357
  0
LINE
  8
0
  6
CONTINUOUS
 62
     2
 10
130.430065548
 20
203.424447223
 11
129.270702744
 21
202.458311552
  0
LINE
  8
0
  6
CONTINUOUS
 62
     2
 10
129.270702744
 20
202.458311552
 11
128.594407775
 21
197.531019632
  0
LINE
  8
0
  6
CONTINUOUS
 62
     2
 10
128.594407775
 20
197.531019632
 11
129.657157012
 21
196.371656828
  0
LINE
  8
0
  6
CONTINUOUS
 62
     2
 10
129.753770579
 20
196.371656828
 11
130.140224847
 21
196.661497529
  0
LINE
  8
0
  6
CONTINUOUS
 62
     2
 10
130.140224847
 20
196.661497529
 11
130.913133384
 21
202.84476582
  0
LINE
  8
0
  6
CONTINUOUS
 62
     2
 10
130.913133384
 20
202.84476582
 11
130.430065548
 21
203.424447223
  0
LINE
  8
0
  6
CONTINUOUS
 62
     2
 10
130.236838414
 20
203.617674357
 11
129.270702744
 21
202.84476582
  0
LINE
  8
0
  6
CONTINUOUS
 62
     2
 10
129.270702744
 20
202.84476582
 11
124.717937492
 21
202.84476582
  0
LINE
  8
0
  6
CONTINUOUS
 62
     2
 10
124.717937492
 20
202.84476582
 11
124.041642522
 21
203.617674357
  0
LINE
  8
0
  6
CONTINUOUS
 62
     2
 10
123.848415388
 20
203.424447223
 11
123.172120419
 21
202.84476582
  0
LINE
  8
0
  6
CONTINUOUS
 62
     2
 10
123.172120419
 20
202.84476582
 11
122.399211882
 21
196.854724663
  0
LINE
  8
0
  6
CONTINUOUS
 62
     2
 10
122.399211882
 20
196.854724663
 11
122.785666151
 21
196.468270395
  0
LINE
  8
0
  6
CONTINUOUS
 62
     2
 10
122.785666151
 20
196.468270395
 11
124.138256089
 21
197.627633199
  0
LINE
  8
0
  6
CONTINUOUS
 62
     2
 10
124.138256089
 20
197.627633199
 11
124.717937492
 21
202.458311552
  0
LINE
  8
0
  6
CONTINUOUS
 62
     2
 10
124.717937492
 20
202.458311552
 11
123.848415388
 21
203.424447223
  0
LINE
  8
0
  6
CONTINUOUS
 62
     2
 10
124.331483223
 20
197.434406065
 11
128.304567073
 21
197.434406065
  0
LINE
  8
0
  6
CONTINUOUS
 62
     2
 10
128.304567073
 20
197.434406065
 11
129.463929878
 21
196.178429694
  0
LINE
  8
0
  6
CONTINUOUS
 62
     2
 10
129.463929878
 20
196.178429694
 11
129.07747561
 21
195.888588993
  0
LINE
  8
0
  6
CONTINUOUS
 62
     2
 10
129.07747561
 20
195.888588993
 11
123.365347553
 21
195.888588993
  0
LINE
  8
0
  6
CONTINUOUS
 62
     2
 10
123.365347553
 20
195.888588993
 11
122.978893285
 21
196.275043261
  0
LINE
  8
0
  6
CONTINUOUS
 62
     2
 10
122.978893285
 20
196.275043261
 11
124.331483223
 21
197.434406065
  0
LINE
  8
0
  6
CONTINUOUS
 62
     2
 10
125.007778193
 20
204.777037161
 11
123.848415388
 21
203.810901491
  0
LINE
  8
0
  6
CONTINUOUS
 62
     2
 10
123.848415388
 20
203.810901491
 11
123.365347553
 21
204.390582893
  0
LINE
  8
0
  6
CONTINUOUS
 62
     2
 10
123.365347553
 20
204.390582893
 11
124.138256089
 21
210.573851184
  0
LINE
  8
0
  6
CONTINUOUS
 62
     2
 10
124.138256089
 20
210.573851184
 11
124.524710357
 21
210.863691886
  0
LINE
  8
0
  6
CONTINUOUS
 62
     2
 10
124.621323924
 20
210.863691886
 11
125.684073162
 21
209.704329081
  0
LINE
  8
0
  6
CONTINUOUS
 62
     2
 10
125.684073162
 20
209.704329081
 11
125.007778193
 21
204.777037161
  0
CIRCLE
  8
0
  6
CONTINUOUS
 62
     2
 10
132.22334095
 20
196.71007573
 40
0.78778788
  0
LINE
  8
0
  6
CONTINUOUS
 62
     2
 10
125.007778193
 20
204.390582893
 11
129.560543445
 21
204.390582893
  0
LINE
  8
0
  6
CONTINUOUS
 62
     2
 10
124.041642522
 20
203.617674357
 11
125.007778193
 21
204.390582893
  0
POLYLINE
  8
0
  6
CONTINUOUS
 62
     2
 66
     1
 70
     1
  0
VERTEX
  8
0
  6
CONTINUOUS
 62
     2
 10
169.013133384
 20
211.346759721
  0
VERTEX
  8
0
  6
CONTINUOUS
 62
     2
 10
163.301005327
 20
211.346759721
  0
VERTEX
  8
0
  6
CONTINUOUS
 62
     2
 10
162.914551059
 20
211.05691902
  0
VERTEX
  8
0
  6
CONTINUOUS
 62
     2
 10
164.073913863
 20
209.800942648
  0
VERTEX
  8
0
  6
CONTINUOUS
 62
     2
 10
168.046997713
 20
209.800942648
  0
VERTEX
  8
0
  6
CONTINUOUS
 62
     2
 10
169.399587652
 20
210.960305453
  0
SEQEND
  0
LINE
  8
0
  6
CONTINUOUS
 62
     2
 10
169.592814786
 20
210.767078319
 11
168.240224847
 21
209.607715514
  0
LINE
  8
0
  6
CONTINUOUS
 62
     2
 10
168.240224847
 20
209.607715514
 11
167.660543445
 21
204.777037161
  0
LINE
  8
0
  6
CONTINUOUS
 62
     2
 10
167.660543445
 20
204.777037161
 11
168.530065548
 21
203.810901491
  0
LINE
  8
0
  6
CONTINUOUS
 62
     2
 10
168.530065548
 20
203.810901491
 11
169.206360518
 21
204.390582893
  0
LINE
  8
0
  6
CONTINUOUS
 62
     2
 10
169.206360518
 20
204.390582893
 11
169.979269054
 21
210.38062405
  0
LINE
  8
0
  6
CONTINUOUS
 62
     2
 10
169.979269054
 20
210.38062405
 11
169.592814786
 21
210.767078319
  0
LINE
  8
0
  6
CONTINUOUS
 62
     2
 10
167.660543445
 20
204.390582893
 11
168.336838414
 21
203.617674357
  0
LINE
  8
0
  6
CONTINUOUS
 62
     2
 10
168.530065548
 20
203.424447223
 11
167.370702744
 21
202.458311552
  0
LINE
  8
0
  6
CONTINUOUS
 62
     2
 10
167.370702744
 20
202.458311552
 11
166.694407775
 21
197.531019632
  0
LINE
  8
0
  6
CONTINUOUS
 62
     2
 10
166.694407775
 20
197.531019632
 11
167.757157012
 21
196.371656828
  0
LINE
  8
0
  6
CONTINUOUS
 62
     2
 10
167.853770579
 20
196.371656828
 11
168.240224847
 21
196.661497529
  0
LINE
  8
0
  6
CONTINUOUS
 62
     2
 10
168.240224847
 20
196.661497529
 11
169.013133384
 21
202.84476582
  0
LINE
  8
0
  6
CONTINUOUS
 62
     2
 10
169.013133384
 20
202.84476582
 11
168.530065548
 21
203.424447223
  0
LINE
  8
0
  6
CONTINUOUS
 62
     2
 10
168.336838414
 20
203.617674357
 11
167.370702744
 21
202.84476582
  0
LINE
  8
0
  6
CONTINUOUS
 62
     2
 10
167.370702744
 20
202.84476582
 11
162.817937492
 21
202.84476582
  0
LINE
  8
0
  6
CONTINUOUS
 62
     2
 10
162.817937492
 20
202.84476582
 11
162.141642522
 21
203.617674357
  0
LINE
  8
0
  6
CONTINUOUS
 62
     2
 10
161.948415388
 20
203.424447223
 11
161.272120419
 21
202.84476582
  0
LINE
  8
0
  6
CONTINUOUS
 62
     2
 10
161.272120419
 20
202.84476582
 11
160.499211882
 21
196.854724663
  0
LINE
  8
0
  6
CONTINUOUS
 62
     2
 10
160.499211882
 20
196.854724663
 11
160.885666151
 21
196.468270395
  0
LINE
  8
0
  6
CONTINUOUS
 62
     2
 10
160.885666151
 20
196.468270395
 11
162.238256089
 21
197.627633199
  0
LINE
  8
0
  6
CONTINUOUS
 62
     2
 10
162.238256089
 20
197.627633199
 11
162.817937492
 21
202.458311552
  0
LINE
  8
0
  6
CONTINUOUS
 62
     2
 10
162.817937492
 20
202.458311552
 11
161.948415388
 21
203.424447223
  0
LINE
  8
0
  6
CONTINUOUS
 62
     2
 10
162.431483223
 20
197.434406065
 11
166.404567073
 21
197.434406065
  0
LINE
  8
0
  6
CONTINUOUS
 62
     2
 10
166.404567073
 20
197.434406065
 11
167.563929878
 21
196.178429694
  0
LINE
  8
0
  6
CONTINUOUS
 62
     2
 10
167.563929878
 20
196.178429694
 11
167.17747561
 21
195.888588993
  0
LINE
  8
0
  6
CONTINUOUS
 62
     2
 10
167.17747561
 20
195.888588993
 11
161.465347553
 21
195.888588993
  0
LINE
  8
0
  6
CONTINUOUS
 62
     2
 10
161.465347553
 20
195.888588993
 11
161.078893285
 21
196.275043261
  0
LINE
  8
0
  6
CONTINUOUS
 62
     2
 10
161.078893285
 20
196.275043261
 11
162.431483223
 21
197.434406065
  0
LINE
  8
0
  6
CONTINUOUS
 62
     2
 10
163.107778193
 20
204.777037161
 11
161.948415388
 21
203.810901491
  0
LINE
  8
0
  6
CONTINUOUS
 62
     2
 10
161.948415388
 20
203.810901491
 11
161.465347553
 21
204.390582893
  0
LINE
  8
0
  6
CONTINUOUS
 62
     2
 10
161.465347553
 20
204.390582893
 11
162.238256089
 21
210.573851184
  0
LINE
  8
0
  6
CONTINUOUS
 62
     2
 10
162.238256089
 20
210.573851184
 11
162.624710357
 21
210.863691886
  0
LINE
  8
0
  6
CONTINUOUS
 62
     2
 10
162.721323924
 20
210.863691886
 11
163.784073162
 21
209.704329081
  0
LINE
  8
0
  6
CONTINUOUS
 62
     2
 10
163.784073162
 20
209.704329081
 11
163.107778193
 21
204.777037161
  0
CIRCLE
  8
0
  6
CONTINUOUS
 62
     2
 10
170.32334095
 20
196.71007573
 40
0.78778788
  0
LINE
  8
0
  6
CONTINUOUS
 62
     2
 10
163.107778193
 20
204.390582893
 11
167.660543445
 21
204.390582893
  0
LINE
  8
0
  6
CONTINUOUS
 62
     2
 10
162.141642522
 20
203.617674357
 11
163.107778193
 21
204.390582893
  0
POLYLINE
  8
0
  6
CONTINUOUS
 62
     2
 66
     1
 70
     1
  0
VERTEX
  8
0
  6
CONTINUOUS
 62
     2
 10
156.513133384
 20
211.346759721
  0
VERTEX
  8
0
  6
CONTINUOUS
 62
     2
 10
150.801005327
 20
211.346759721
  0
VERTEX
  8
0
  6
CONTINUOUS
 62
     2
 10
150.414551059
 20
211.05691902
  0
VERTEX
  8
0
  6
CONTINUOUS
 62
     2
 10
151.573913863
 20
209.800942648
  0
VERTEX
  8
0
  6
CONTINUOUS
 62
     2
 10
155.546997713
 20
209.800942648
  0
VERTEX
  8
0
  6
CONTINUOUS
 62
     2
 10
156.899587652
 20
210.960305453
  0
SEQEND
  0
LINE
  8
0
  6
CONTINUOUS
 62
     2
 10
157.092814786
 20
210.767078319
 11
155.740224847
 21
209.607715514
  0
LINE
  8
0
  6
CONTINUOUS
 62
     2
 10
155.740224847
 20
209.607715514
 11
155.160543445
 21
204.777037161
  0
LINE
  8
0
  6
CONTINUOUS
 62
     2
 10
155.160543445
 20
204.777037161
 11
156.030065548
 21
203.810901491
  0
LINE
  8
0
  6
CONTINUOUS
 62
     2
 10
156.030065548
 20
203.810901491
 11
156.706360518
 21
204.390582893
  0
LINE
  8
0
  6
CONTINUOUS
 62
     2
 10
156.706360518
 20
204.390582893
 11
157.479269054
 21
210.38062405
  0
LINE
  8
0
  6
CONTINUOUS
 62
     2
 10
157.479269054
 20
210.38062405
 11
157.092814786
 21
210.767078319
  0
LINE
  8
0
  6
CONTINUOUS
 62
     2
 10
155.160543445
 20
204.390582893
 11
155.836838414
 21
203.617674357
  0
LINE
  8
0
  6
CONTINUOUS
 62
     2
 10
156.030065548
 20
203.424447223
 11
154.870702744
 21
202.458311552
  0
LINE
  8
0
  6
CONTINUOUS
 62
     2
 10
154.870702744
 20
202.458311552
 11
154.194407775
 21
197.531019632
  0
LINE
  8
0
  6
CONTINUOUS
 62
     2
 10
154.194407775
 20
197.531019632
 11
155.257157012
 21
196.371656828
  0
LINE
  8
0
  6
CONTINUOUS
 62
     2
 10
155.353770579
 20
196.371656828
 11
155.740224847
 21
196.661497529
  0
LINE
  8
0
  6
CONTINUOUS
 62
     2
 10
155.740224847
 20
196.661497529
 11
156.513133384
 21
202.84476582
  0
LINE
  8
0
  6
CONTINUOUS
 62
     2
 10
156.513133384
 20
202.84476582
 11
156.030065548
 21
203.424447223
  0
LINE
  8
0
  6
CONTINUOUS
 62
     2
 10
155.836838414
 20
203.617674357
 11
154.870702744
 21
202.84476582
  0
LINE
  8
0
  6
CONTINUOUS
 62
     2
 10
154.870702744
 20
202.84476582
 11
150.317937492
 21
202.84476582
  0
LINE
  8
0
  6
CONTINUOUS
 62
     2
 10
150.317937492
 20
202.84476582
 11
149.641642522
 21
203.617674357
  0
LINE
  8
0
  6
CONTINUOUS
 62
     2
 10
149.448415388
 20
203.424447223
 11
148.772120419
 21
202.84476582
  0
LINE
  8
0
  6
CONTINUOUS
 62
     2
 10
148.772120419
 20
202.84476582
 11
147.999211882
 21
196.854724663
  0
LINE
  8
0
  6
CONTINUOUS
 62
     2
 10
147.999211882
 20
196.854724663
 11
148.385666151
 21
196.468270395
  0
LINE
  8
0
  6
CONTINUOUS
 62
     2
 10
148.385666151
 20
196.468270395
 11
149.738256089
 21
197.627633199
  0
LINE
  8
0
  6
CONTINUOUS
 62
     2
 10
149.738256089
 20
197.627633199
 11
150.317937492
 21
202.458311552
  0
LINE
  8
0
  6
CONTINUOUS
 62
     2
 10
150.317937492
 20
202.458311552
 11
149.448415388
 21
203.424447223
  0
LINE
  8
0
  6
CONTINUOUS
 62
     2
 10
149.931483223
 20
197.434406065
 11
153.904567073
 21
197.434406065
  0
LINE
  8
0
  6
CONTINUOUS
 62
     2
 10
153.904567073
 20
197.434406065
 11
155.063929878
 21
196.178429694
  0
LINE
  8
0
  6
CONTINUOUS
 62
     2
 10
155.063929878
 20
196.178429694
 11
154.67747561
 21
195.888588993
  0
LINE
  8
0
  6
CONTINUOUS
 62
     2
 10
154.67747561
 20
195.888588993
 11
148.965347553
 21
195.888588993
  0
LINE
  8
0
  6
CONTINUOUS
 62
     2
 10
148.965347553
 20
195.888588993
 11
148.578893285
 21
196.275043261
  0
LINE
  8
0
  6
CONTINUOUS
 62
     2
 10
148.578893285
 20
196.275043261
 11
149.931483223
 21
197.434406065
  0
LINE
  8
0
  6
CONTINUOUS
 62
     2
 10
150.607778193
 20
204.777037161
 11
149.448415388
 21
203.810901491
  0
LINE
  8
0
  6
CONTINUOUS
 62
     2
 10
149.448415388
 20
203.810901491
 11
148.965347553
 21
204.390582893
  0
LINE
  8
0
  6
CONTINUOUS
 62
     2
 10
148.965347553
 20
204.390582893
 11
149.738256089
 21
210.573851184
  0
LINE
  8
0
  6
CONTINUOUS
 62
     2
 10
149.738256089
 20
210.573851184
 11
150.124710357
 21
210.863691886
  0
LINE
  8
0
  6
CONTINUOUS
 62
     2
 10
150.221323924
 20
210.863691886
 11
151.284073162
 21
209.704329081
  0
LINE
  8
0
  6
CONTINUOUS
 62
     2
 10
151.284073162
 20
209.704329081
 11
150.607778193
 21
204.777037161
  0
CIRCLE
  8
0
  6
CONTINUOUS
 62
     2
 10
157.82334095
 20
196.71007573
 40
0.78778788
  0
LINE
  8
0
  6
CONTINUOUS
 62
     2
 10
150.607778193
 20
204.390582893
 11
155.160543445
 21
204.390582893
  0
LINE
  8
0
  6
CONTINUOUS
 62
     2
 10
149.641642522
 20
203.617674357
 11
150.607778193
 21
204.390582893
  0
LINE
  8
0
  6
CONTINUOUS
 62
     2
 10
172.35
 20
213.8
 11
120.35
 21
213.8
  0
POLYLINE
  8
0
  6
CONTINUOUS
 62
     2
 66
     1
  0
VERTEX
  8
0
  6
CONTINUOUS
 62
     2
 10
120.35
 20
213.8
  0
VERTEX
  8
0
  6
CONTINUOUS
 62
     2
 10
120.35
 20
193.8
  0
VERTEX
  8
0
  6
CONTINUOUS
 62
     2
 10
172.35
 20
193.8
  0
VERTEX
  8
0
  6
CONTINUOUS
 62
     2
 10
172.35
 20
213.8
  0
SEQEND
  0
POLYLINE
  8
0
  6
CONTINUOUS
 62
     2
 66
     1
 70
     1
  0
VERTEX
  8
0
  6
CONTINUOUS
 62
     2
 10
172.5
 20
192.75
  0
VERTEX
  8
0
  6
CONTINUOUS
 62
     2
 10
131.5
 20
192.75
  0
VERTEX
  8
0
  6
CONTINUOUS
 62
     2
 10
131.5
 20
178.75
  0
VERTEX
  8
0
  6
CONTINUOUS
 62
     2
 10
172.5
 20
178.75
  0
SEQEND
  0
TEXT
  8
0
  6
CONTINUOUS
 62
     2
 10
173.15
 20
180.8
 30
0.0
 40
4.0
  1
℃
 50
0.0
 41
0.75
 51
0.0
  7
KANJI10
  0
TEXT
  8
0
  6
CONTINUOUS
 62
     2
 10
129.15
 20
191.0
 30
0.0
 40
3.0
  1
ＳＶ
 50
0.0
 41
1.0
 51
0.0
  7
KANJI11
  0
TEXT
  8
0
  6
CONTINUOUS
 62
     2
 10
118.05
 20
211.5
 30
0.0
 40
3.0
  1
ＰＶ
 50
0.0
 41
1.0
 51
0.0
  7
KANJI11
  0
POLYLINE
  8
0
  6
CONTINUOUS
 62
     7
 66
     1
 70
     1
  0
VERTEX
  8
0
  6
CONTINUOUS
 62
     7
 10
146.05
 20
213.3
  0
VERTEX
  8
0
  6
CONTINUOUS
 62
     7
 10
121.05
 20
213.3
  0
VERTEX
  8
0
  6
CONTINUOUS
 62
     7
 10
121.05
 20
194.3
  0
VERTEX
  8
0
  6
CONTINUOUS
 62
     7
 10
146.05
 20
194.3
  0
SEQEND
  0
POLYLINE
  8
0
  6
CONTINUOUS
 62
     7
 66
     1
 70
     1
  0
VERTEX
  8
0
  6
CONTINUOUS
 62
     7
 10
146.65
 20
213.3
  0
VERTEX
  8
0
  6
CONTINUOUS
 62
     7
 10
146.65
 20
194.3
  0
VERTEX
  8
0
  6
CONTINUOUS
 62
     7
 10
171.65
 20
194.3
  0
VERTEX
  8
0
  6
CONTINUOUS
 62
     7
 10
171.65
 20
213.3
  0
SEQEND
  0
POLYLINE
  8
0
  6
CONTINUOUS
 62
     7
 66
     1
 70
     1
  0
VERTEX
  8
0
  6
CONTINUOUS
 62
     7
 10
142.1
 20
179.3002
  0
VERTEX
  8
0
  6
CONTINUOUS
 62
     7
 10
142.1
 20
192.3
  0
VERTEX
  8
0
  6
CONTINUOUS
 62
     7
 10
151.7
 20
192.3
  0
VERTEX
  8
0
  6
CONTINUOUS
 62
     7
 10
151.7
 20
179.3002
  0
SEQEND
  0
POLYLINE
  8
0
  6
CONTINUOUS
 62
     7
 66
     1
 70
     1
  0
VERTEX
  8
0
  6
CONTINUOUS
 62
     7
 10
141.5
 20
179.3002
  0
VERTEX
  8
0
  6
CONTINUOUS
 62
     7
 10
141.5
 20
192.3
  0
VERTEX
  8
0
  6
CONTINUOUS
 62
     7
 10
131.9
 20
192.3
  0
VERTEX
  8
0
  6
CONTINUOUS
 62
     7
 10
131.9
 20
179.3002
  0
SEQEND
  0
POLYLINE
  8
0
  6
CONTINUOUS
 62
     7
 66
     1
 70
     1
  0
VERTEX
  8
0
  6
CONTINUOUS
 62
     7
 10
152.3
 20
179.3002
  0
VERTEX
  8
0
  6
CONTINUOUS
 62
     7
 10
152.3
 20
192.3
  0
VERTEX
  8
0
  6
CONTINUOUS
 62
     7
 10
161.9
 20
192.3
  0
VERTEX
  8
0
  6
CONTINUOUS
 62
     7
 10
161.9
 20
179.3002
  0
SEQEND
  0
POLYLINE
  8
0
  6
CONTINUOUS
 62
     7
 66
     1
 70
     1
  0
VERTEX
  8
0
  6
CONTINUOUS
 62
     7
 10
162.5
 20
179.3002
  0
VERTEX
  8
0
  6
CONTINUOUS
 62
     7
 10
162.5
 20
192.3
  0
VERTEX
  8
0
  6
CONTINUOUS
 62
     7
 10
172.1
 20
192.3
  0
VERTEX
  8
0
  6
CONTINUOUS
 62
     7
 10
172.1
 20
179.3002
  0
SEQEND
  0
ARC
  8
0
  6
CONTINUOUS
 62
     2
 10
135.849953127
 20
91.291880662
 40
1.5
 50
270.0
 51
0.0
  0
LINE
  8
0
  6
CONTINUOUS
 62
     2
 10
135.849953127
 20
89.791880662
 11
127.849953127
 21
89.791880662
  0
ARC
  8
0
  6
CONTINUOUS
 62
     2
 10
127.849953127
 20
91.291880662
 40
1.5
 50
180.0
 51
270.0
  0
ARC
  8
0
  6
CONTINUOUS
 62
     2
 10
171.85
 20
91.3
 40
2.0
 50
270.0
 51
0.0
  0
LINE
  8
0
  6
CONTINUOUS
 62
     2
 10
171.85
 20
89.3
 11
156.85
 21
89.3
  0
ARC
  8
0
  6
CONTINUOUS
 62
     2
 10
156.85
 20
91.3
 40
2.0
 50
180.0
 51
270.0
  0
LINE
  8
0
  6
CONTINUOUS
 62
     2
 10
171.85
 20
89.3
 11
156.85
 21
89.3
  0
ARC
  8
0
  6
CONTINUOUS
 62
     2
 10
105.969255426
 20
83.912259267
 40
24.10353422
 50
203.298485658
 51
0.061892638
  0
ARC
  8
0
  6
CONTINUOUS
 62
     2
 10
106.230886031
 20
83.695582947
 40
27.342513676
 50
206.754503159
 51
0.428356502
  0
ARC
  8
0
  6
CONTINUOUS
 62
     2
 10
192.336957441
 20
85.97415232
 40
32.714213798
 50
186.977577558
 51
350.767753294
  0
ARC
  8
0
  6
CONTINUOUS
 62
     2
 10
192.387247696
 20
85.915542575
 40
23.655717678
 50
188.057000126
 51
351.20844866
  0
LINE
  8
0
  6
CONTINUOUS
 62
     2
 10
133.599971962
 20
89.791880662
 11
133.57263557
 21
83.9
  0
LINE
  8
0
  6
CONTINUOUS
 62
     2
 10
130.099934291
 20
89.791880662
 11
130.072775582
 21
83.938296631
  0
LINE
  8
0
  6
CONTINUOUS
 62
     2
 10
159.817320261
 20
89.3
 11
159.86503268
 21
82.0
  0
LINE
  8
0
  6
CONTINUOUS
 62
     2
 10
168.873876217
 20
89.3
 11
168.96503268
 21
82.6
  0
LINE
  8
0
  6
CONTINUOUS
 62
     1
 10
232.503342073
 20
79.686318758
 11
211.707218725
 21
97.076748848
  0
LINE
  8
0
  6
CONTINUOUS
 62
     2
 10
215.76503268
 20
82.3
 11
217.665190146
 21
92.094489234
  0
LINE
  8
0
  6
CONTINUOUS
 62
     2
 10
224.627395429
 20
80.725590714
 11
225.553292291
 21
85.49818825
  0
LINE
  8
0
  6
CONTINUOUS
 62
     2
 10
218.726305875
 20
99.126111742
 11
220.207974042
 21
106.763469786
  0
LINE
  8
0
  6
CONTINUOUS
 62
     2
 10
229.294578874
 20
105.063167007
 11
232.276340671
 21
116.214807989
  0
LINE
  8
0
  6
CONTINUOUS
 62
     2
 10
242.52639163
 20
139.793112748
 11
240.789909854
 21
129.945035218
  0
LINE
  8
0
  6
CONTINUOUS
 62
     2
 10
240.789909854
 20
129.945035218
 11
233.261148424
 21
116.041159811
  0
LINE
  8
0
  6
CONTINUOUS
 62
     2
 10
219.985732356
 20
106.805056073
 11
229.294578874
 21
105.063167007
  0
LINE
  8
0
  6
CONTINUOUS
 62
     2
 10
222.620197797
 20
115.987081549
 11
229.959428809
 21
114.592488838
  0
LINE
  8
0
  6
CONTINUOUS
 62
     2
 10
229.438484276
 20
111.638065579
 11
222.099253264
 21
113.03265829
  0
LINE
  8
0
  6
CONTINUOUS
 62
     2
 10
221.66513282
 20
110.570638907
 11
229.004363832
 21
109.176046197
  0
LINE
  8
0
  6
CONTINUOUS
 62
     2
 10
230.799129041
 20
116.475280256
 11
222.475090276
 21
118.043521144
  0
LINE
  8
0
  6
CONTINUOUS
 62
     2
 10
220.997878647
 20
118.30399341
 11
219.985732356
 21
106.805056073
  0
LINE
  8
0
  6
CONTINUOUS
 62
     2
 10
228.657067477
 20
107.206430691
 11
221.810240341
 21
108.514199313
  0
LINE
  8
0
  6
CONTINUOUS
 62
     2
 10
233.261148424
 20
116.041159811
 11
220.013070894
 21
118.477641588
  0
LINE
  8
0
  6
CONTINUOUS
 62
     2
 10
217.493754794
 20
134.217998772
 11
219.23023657
 21
144.066076302
  0
LINE
  8
0
  6
CONTINUOUS
 62
     2
 10
219.23023657
 20
144.066076302
 11
242.52639163
 21
139.793112748
  0
LINE
  8
0
  6
CONTINUOUS
 62
     2
 10
220.013070894
 20
118.477641588
 11
217.493754794
 21
134.217998772
  0
LINE
  8
0
  6
CONTINUOUS
 62
     2
 10
226.711944309
 20
154.666067507
 11
227.696752062
 21
154.49241933
  0
LINE
  8
0
  6
CONTINUOUS
 62
     2
 10
238.529637345
 20
152.582289375
 11
239.514445098
 21
152.408641198
  0
ARC
  8
0
  6
CONTINUOUS
 62
     2
 10
233.113194908
 20
153.537355512
 40
1.5
 50
350.000044955
 51
170.000044955
  0
LINE
  8
0
  6
CONTINUOUS
 62
     2
 10
224.667043921
 20
143.068861113
 11
226.711944309
 21
154.666067507
  0
LINE
  8
0
  6
CONTINUOUS
 62
     2
 10
227.696752062
 20
154.49241933
 11
225.650658695
 21
142.888447218
  0
LINE
  8
0
  6
CONTINUOUS
 62
     2
 10
236.470421214
 20
140.903894369
 11
238.529637345
 21
152.582289375
  0
LINE
  8
0
  6
CONTINUOUS
 62
     2
 10
239.514445098
 20
152.408641198
 11
237.454035988
 21
140.723480473
  0
LINE
  8
0
  6
CONTINUOUS
 62
     2
 10
231.635983074
 20
153.797826619
 11
229.585117793
 21
142.166791637
  0
LINE
  8
0
  6
CONTINUOUS
 62
     2
 10
234.590406333
 20
153.276882086
 11
232.535962116
 21
141.62554995
  0
LINE
  8
0
  6
CONTINUOUS
 62
     2
 10
226.668867
 20
92.810523228
 11
229.054623993
 21
105.108067821
  0
LINE
  8
0
  6
CONTINUOUS
 62
     1
 10
233.580712455
 20
87.314516199
 11
212.741542891
 21
103.88494202
  0
LINE
  8
0
  6
CONTINUOUS
 62
     1
 10
223.25
 20
150.5
 11
223.128454277
 21
152.997043579
  0
LINE
  8
0
  6
CONTINUOUS
 62
     1
 10
223.25
 20
150.5
 11
221.896216526
 21
152.601730313
  0
LINE
  8
0
  6
CONTINUOUS
 62
     1
 10
223.25
 20
150.5
 11
212.15
 21
185.1
  0
LINE
  8
0
  6
CONTINUOUS
 62
     1
 10
245.75
 20
185.1
 11
212.15
 21
185.1
  0
TEXT
  8
0
  6
CONTINUOUS
 62
     1
 10
212.15
 20
185.6
 30
0.0
 40
3.0
  1
３Ｐプラグ付き電源コード
 50
0.0
 41
0.933333333
 51
0.0
  7
KANJI3
  0
TEXT
  8
0
  6
CONTINUOUS
 62
     1
 10
218.95
 20
180.1
 30
0.0
 40
3.0
  1
リード線２ｍ
 50
0.0
 41
0.933333333
 51
0.0
  7
KANJI3
  0
LINE
  8
0
  6
CONTINUOUS
 62
     2
 10
74.150503024
 20
110.79166298
 11
65.831615139
 21
141.69143813
  0
LINE
  8
0
  6
CONTINUOUS
 62
     2
 10
60.810401677
 20
140.339618849
 11
69.129289562
 21
109.439843698
  0
LINE
  8
0
  6
CONTINUOUS
 62
     2
 10
56.390652474
 20
173.957652474
 11
38.005225076
 21
242.403401212
  0
ARC
  8
0
  6
CONTINUOUS
 62
     2
 10
36.133
 20
241.7
 40
2.0
 50
20.591367109
 51
184.167100389
  0
LINE
  8
0
  6
CONTINUOUS
 62
     2
 10
34.138287267
 20
241.554668959
 11
53.075152466
 21
170.642152466
  0
LINE
  8
0
  6
CONTINUOUS
 62
     2
 10
63.999504909
 20
145.410124624
 11
57.390575758
 21
169.957575758
  0
LINE
  8
0
  6
CONTINUOUS
 62
     2
 10
60.146592531
 20
144.372837267
 11
54.154144279
 21
166.721144279
  0
LINE
  8
0
  6
CONTINUOUS
 62
     1
 10
59.933
 20
177.5
 11
50.733
 21
168.3
  0
LINE
  8
0
  6
CONTINUOUS
 62
     1
 10
50.733
 20
163.3
 11
59.933
 21
172.5
  0
LINE
  8
0
  6
CONTINUOUS
 62
     2
 10
65.831615139
 20
141.69143813
 11
64.580405758
 21
144.530909457
  0
LINE
  8
0
  6
CONTINUOUS
 62
     2
 10
60.810401677
 20
140.339618849
 11
60.328397088
 21
143.399292127
  0
LINE
  8
0
  6
CONTINUOUS
 62
     2
 10
64.580405758
 20
144.530909457
 11
64.320440511
 21
145.49652743
  0
LINE
  8
0
  6
CONTINUOUS
 62
     2
 10
64.320440511
 20
145.49652743
 11
60.071721428
 21
144.352680346
  0
LINE
  8
0
  6
CONTINUOUS
 62
     2
 10
60.071721428
 20
144.352680346
 11
60.328397088
 21
143.399292127
  0
LINE
  8
0
  6
CONTINUOUS
 62
     1
 10
51.8
 20
183.4
 11
53.900419949
 21
184.755815635
  0
LINE
  8
0
  6
CONTINUOUS
 62
     1
 10
51.8
 20
183.4
 11
52.941109217
 21
185.624380758
  0
LINE
  8
0
  6
CONTINUOUS
 62
     1
 10
51.8
 20
183.4
 11
65.2
 21
198.2
  0
LINE
  8
0
  6
CONTINUOUS
 62
     1
 10
65.2
 20
198.2
 11
93.2
 21
198.2
  0
TEXT
  8
0
  6
CONTINUOUS
 62
     1
 10
65.2
 20
198.7
 30
0.0
 40
3.0
  1
Ｋ熱電対／Ｐｔ１００
 50
0.0
 41
0.933333333
 51
0.0
  7
KANJI3
  0
LINE
  8
0
  6
CONTINUOUS
 62
     1
 10
86.639667125
 20
78.661915584
 11
79.178564388
 21
67.586841208
  0
LINE
  8
0
  6
CONTINUOUS
 62
     1
 10
85.262345432
 20
81.986841208
 11
77.751604014
 21
70.838084416
  0
LINE
  8
0
  6
CONTINUOUS
 62
     2
 10
69.129289562
 20
109.439843698
 11
70.248556481
 21
106.551735225
  0
POLYLINE
  8
0
  6
CONTINUOUS
 62
     2
 66
     1
  0
VERTEX
  8
0
  6
CONTINUOUS
 62
     2
 10
74.493980517
 20
107.707810593
  0
VERTEX
  8
0
  6
CONTINUOUS
 62
     2
 10
74.753945764
 20
106.74219262
  0
VERTEX
  8
0
  6
CONTINUOUS
 62
     2
 10
70.505226681
 20
105.598345536
  0
VERTEX
  8
0
  6
CONTINUOUS
 62
     2
 10
70.248556481
 20
106.551735225
  0
SEQEND
  0
LINE
  8
0
  6
CONTINUOUS
 62
     2
 10
82.583333661
 20
78.010183111
 11
73.90052867
 21
106.512434277
  0
LINE
  8
0
  6
CONTINUOUS
 62
     2
 10
80.311474309
 20
74.763460551
 11
70.710483437
 21
105.653605094
  0
LINE
  8
0
  6
CONTINUOUS
 62
     2
 10
74.150503024
 20
110.79166298
 11
74.493980517
 21
107.707810593
  0
ENDSEC
  0
EOF
